  0
SECTION
  2
HEADER
  9
$ACADVER
  1
AC1015
  9
$ACADMAINTVER
 70
     6
  9
$DWGCODEPAGE
  3
ANSI_1254
  9
$INSBASE
 10
0.0
 20
0.0
 30
0.0
  9
$EXTMIN
 10
0.0
 20
0.0
 30
0.0
  9
$EXTMAX
 10
279.4
 20
215.9
 30
0.0
  9
$LIMMIN
 10
0.0
 20
0.0
  9
$LIMMAX
 10
279.4
 20
215.9
  9
$ORTHOMODE
 70
     0
  9
$REGENMODE
 70
     1
  9
$FILLMODE
 70
     1
  9
$QTEXTMODE
 70
     0
  9
$MIRRTEXT
 70
     1
  9
$LTSCALE
 40
1.0
  9
$ATTMODE
 70
     1
  9
$TEXTSIZE
 40
3.5
  9
$TRACEWID
 40
1.0
  9
$TEXTSTYLE
  7
Standard
  9
$CLAYER
  8
0
  9
$CELTYPE
  6
ByLayer
  9
$CECOLOR
 62
   256
  9
$CELTSCALE
 40
1.0
  9
$DISPSILH
 70
     0
  9
$DIMSCALE
 40
1.0
  9
$DIMASZ
 40
3.5
  9
$DIMEXO
 40
1.0
  9
$DIMDLI
 40
3.75
  9
$DIMRND
 40
0.0
  9
$DIMDLE
 40
0.0
  9
$DIMEXE
 40
1.0
  9
$DIMTP
 40
0.0
  9
$DIMTM
 40
0.0
  9
$DIMTXT
 40
3.5
  9
$DIMCEN
 40
2.5
  9
$DIMTSZ
 40
0.0
  9
$DIMTOL
 70
     0
  9
$DIMLIM
 70
     0
  9
$DIMTIH
 70
     1
  9
$DIMTOH
 70
     1
  9
$DIMSE1
 70
     0
  9
$DIMSE2
 70
     0
  9
$DIMTAD
 70
     1
  9
$DIMZIN
 70
     0
  9
$DIMBLK
  1

  9
$DIMASO
 70
     1
  9
$DIMSHO
 70
     1
  9
$DIMPOST
  1

  9
$DIMAPOST
  1

  9
$DIMALT
 70
     0
  9
$DIMALTD
 70
     3
  9
$DIMALTF
 40
0.0393700787
  9
$DIMLFAC
 40
1.0
  9
$DIMTOFL
 70
     1
  9
$DIMTVP
 40
0.0
  9
$DIMTIX
 70
     0
  9
$DIMSOXD
 70
     0
  9
$DIMSAH
 70
     0
  9
$DIMBLK1
  1

  9
$DIMBLK2
  1

  9
$DIMSTYLE
  2
ISO-25
  9
$DIMCLRD
 70
     0
  9
$DIMCLRE
 70
     0
  9
$DIMCLRT
 70
     0
  9
$DIMTFAC
 40
1.0
  9
$DIMGAP
 40
1.524
  9
$DIMJUST
 70
     0
  9
$DIMSD1
 70
     0
  9
$DIMSD2
 70
     0
  9
$DIMTOLJ
 70
     0
  9
$DIMTZIN
 70
     0
  9
$DIMALTZ
 70
     0
  9
$DIMALTTZ
 70
     0
  9
$DIMUPT
 70
     0
  9
$DIMDEC
 70
     2
  9
$DIMTDEC
 70
     2
  9
$DIMALTU
 70
     2
  9
$DIMALTTD
 70
     3
  9
$DIMTXSTY
  7
Standard
  9
$DIMAUNIT
 70
     0
  9
$DIMADEC
 70
     2
  9
$DIMALTRND
 40
0.0
  9
$DIMAZIN
 70
     0
  9
$DIMDSEP
 70
    44
  9
$DIMATFIT
 70
     3
  9
$DIMFRAC
 70
     0
  9
$DIMLDRBLK
  1

  9
$DIMLUNIT
 70
     2
  9
$DIMLWD
 70
    -2
  9
$DIMLWE
 70
    -2
  9
$DIMTMOVE
 70
     0
  9
$LUNITS
 70
     2
  9
$LUPREC
 70
     2
  9
$SKETCHINC
 40
1.0
  9
$FILLETRAD
 40
10.0
  9
$AUNITS
 70
     0
  9
$AUPREC
 70
     2
  9
$MENU
  1
.
  9
$ELEVATION
 40
0.0
  9
$PELEVATION
 40
0.0
  9
$THICKNESS
 40
0.0
  9
$LIMCHECK
 70
     0
  9
$CHAMFERA
 40
0.0
  9
$CHAMFERB
 40
0.0
  9
$CHAMFERC
 40
0.0
  9
$CHAMFERD
 40
0.0
  9
$SKPOLY
 70
     0
  9
$TDCREATE
 40
2459948.57936522
  9
$TDUCREATE
 40
2459948.45436522
  9
$TDUPDATE
 40
2459948.579365417
  9
$TDUUPDATE
 40
2459948.454365417
  9
$TDINDWG
 40
0.0000000116
  9
$TDUSRTIMER
 40
0.0000000116
  9
$USRTIMER
 70
     1
  9
$ANGBASE
 50
0.0
  9
$ANGDIR
 70
     0
  9
$PDMODE
 70
     0
  9
$PDSIZE
 40
-1.0
  9
$PLINEWID
 40
0.0
  9
$SPLFRAME
 70
     0
  9
$SPLINETYPE
 70
     6
  9
$SPLINESEGS
 70
     8
  9
$HANDSEED
  5
16A
  9
$SURFTAB1
 70
     6
  9
$SURFTAB2
 70
     6
  9
$SURFTYPE
 70
     6
  9
$SURFU
 70
     6
  9
$SURFV
 70
     6
  9
$UCSBASE
  2

  9
$UCSNAME
  2

  9
$UCSORG
 10
0.0
 20
0.0
 30
0.0
  9
$UCSXDIR
 10
1.0
 20
0.0
 30
0.0
  9
$UCSYDIR
 10
0.0
 20
1.0
 30
0.0
  9
$UCSORTHOREF
  2

  9
$UCSORTHOVIEW
 70
     0
  9
$UCSORGTOP
 10
0.0
 20
0.0
 30
0.0
  9
$UCSORGBOTTOM
 10
0.0
 20
0.0
 30
0.0
  9
$UCSORGLEFT
 10
0.0
 20
0.0
 30
0.0
  9
$UCSORGRIGHT
 10
0.0
 20
0.0
 30
0.0
  9
$UCSORGFRONT
 10
0.0
 20
0.0
 30
0.0
  9
$UCSORGBACK
 10
0.0
 20
0.0
 30
0.0
  9
$PUCSBASE
  2

  9
$PUCSNAME
  2

  9
$PUCSORG
 10
0.0
 20
0.0
 30
0.0
  9
$PUCSXDIR
 10
1.0
 20
0.0
 30
0.0
  9
$PUCSYDIR
 10
0.0
 20
1.0
 30
0.0
  9
$PUCSORTHOREF
  2

  9
$PUCSORTHOVIEW
 70
     0
  9
$PUCSORGTOP
 10
0.0
 20
0.0
 30
0.0
  9
$PUCSORGBOTTOM
 10
0.0
 20
0.0
 30
0.0
  9
$PUCSORGLEFT
 10
0.0
 20
0.0
 30
0.0
  9
$PUCSORGRIGHT
 10
0.0
 20
0.0
 30
0.0
  9
$PUCSORGFRONT
 10
0.0
 20
0.0
 30
0.0
  9
$PUCSORGBACK
 10
0.0
 20
0.0
 30
0.0
  9
$USERI1
 70
     0
  9
$USERI2
 70
     0
  9
$USERI3
 70
     0
  9
$USERI4
 70
     0
  9
$USERI5
 70
     0
  9
$USERR1
 40
0.0
  9
$USERR2
 40
0.0
  9
$USERR3
 40
0.0
  9
$USERR4
 40
0.0
  9
$USERR5
 40
0.0
  9
$WORLDVIEW
 70
     1
  9
$SHADEDGE
 70
     3
  9
$SHADEDIF
 70
    70
  9
$TILEMODE
 70
     1
  9
$MAXACTVP
 70
    64
  9
$PINSBASE
 10
0.0
 20
0.0
 30
0.0
  9
$PLIMCHECK
 70
     0
  9
$PEXTMIN
 10
1.0000000000E+20
 20
1.0000000000E+20
 30
1.0000000000E+20
  9
$PEXTMAX
 10
-1.0000000000E+20
 20
-1.0000000000E+20
 30
-1.0000000000E+20
  9
$PLIMMIN
 10
0.0
 20
0.0
  9
$PLIMMAX
 10
420.0
 20
297.0
  9
$UNITMODE
 70
     0
  9
$VISRETAIN
 70
     1
  9
$PLINEGEN
 70
     0
  9
$PSLTSCALE
 70
     1
  9
$TREEDEPTH
 70
  3020
  9
$CMLSTYLE
  2
Standard
  9
$CMLJUST
 70
     0
  9
$CMLSCALE
 40
20.0
  9
$PROXYGRAPHICS
 70
     1
  9
$MEASUREMENT
 70
     1
  9
$CELWEIGHT
370
    -1
  9
$ENDCAPS
280
     0
  9
$JOINSTYLE
280
     0
  9
$LWDISPLAY
290
     1
  9
$INSUNITS
 70
     4
  9
$HYPERLINKBASE
  1

  9
$STYLESHEET
  1

  9
$XEDIT
290
     1
  9
$CEPSNTYPE
380
     0
  9
$PSTYLEMODE
290
     1
  9
$FINGERPRINTGUID
  2
{c27d8c5b-6c63-4a38-a1ea-b6103b3c4a28}
  9
$VERSIONGUID
  2
{FAEB1C32-E019-11D5-929B-00C0DF256EC4}
  9
$EXTNAMES
290
     1
  9
$PSVPSCALE
 40
0.0
  9
$OLESTARTUP
290
     0
  0
ENDSEC
  0
SECTION
  2
CLASSES
  0
CLASS
  1
ACDBDICTIONARYWDFLT
  2
AcDbDictionaryWithDefault
  3
ObjectDBX Classes
 90
        0
280
     0
281
     0
  0
CLASS
  1
VISUALSTYLE
  2
AcDbVisualStyle
  3
ObjectDBX Classes
 90
     4095
280
     0
281
     0
  0
CLASS
  1
MATERIAL
  2
AcDbMaterial
  3
ObjectDBX Classes
 90
     1153
280
     0
281
     0
  0
CLASS
  1
SCALE
  2
AcDbScale
  3
ObjectDBX Classes
 90
     1153
280
     0
281
     0
  0
CLASS
  1
TABLESTYLE
  2
AcDbTableStyle
  3
ObjectDBX Classes
 90
     4095
280
     0
281
     0
  0
CLASS
  1
MLEADERSTYLE
  2
AcDbMLeaderStyle
  3
ACDB_MLEADERSTYLE_CLASS
 90
     4095
280
     0
281
     0
  0
CLASS
  1
SUN
  2
AcDbSun
  3
SCENEOE
 90
     1153
280
     0
281
     0
  0
CLASS
  1
ACDBPLACEHOLDER
  2
AcDbPlaceHolder
  3
ObjectDBX Classes
 90
        0
280
     0
281
     0
  0
CLASS
  1
LAYOUT
  2
AcDbLayout
  3
ObjectDBX Classes
 90
        0
280
     0
281
     0
  0
ENDSEC
  0
SECTION
  2
TABLES
  0
TABLE
  2
VPORT
  5
8
330
0
100
AcDbSymbolTable
 70
     1
  0
VPORT
  5
29
330
8
100
AcDbSymbolTableRecord
100
AcDbViewportTableRecord
  2
*Active
 70
     0
 10
0.0
 20
0.0
 11
1.0
 21
1.0
 12
139.7
 22
107.95
 13
0.0
 23
0.0
 14
10.0
 24
10.0
 15
10.0
 25
10.0
 16
0.0
 26
0.0
 36
1.0
 17
0.0
 27
0.0
 37
0.0
 40
215.9
 41
1.2941176471
 42
50.0
 43
0.0
 44
0.0
 50
0.0
 51
0.0
 71
     0
 72
  2000
 73
     1
 74
     3
 75
     0
 76
     0
 77
     0
 78
     0
281
     0
 65
     1
110
0.0
120
0.0
130
0.0
111
1.0
121
0.0
131
0.0
112
0.0
122
1.0
132
0.0
 79
     0
146
0.0
  0
ENDTAB
  0
TABLE
  2
LTYPE
  5
5
330
0
100
AcDbSymbolTable
 70
     6
  0
LTYPE
  5
14
330
5
100
AcDbSymbolTableRecord
100
AcDbLinetypeTableRecord
  2
ByBlock
 70
     0
  3

 72
    65
 73
     0
 40
0.0
  0
LTYPE
  5
15
330
5
100
AcDbSymbolTableRecord
100
AcDbLinetypeTableRecord
  2
ByLayer
 70
     0
  3

 72
    65
 73
     0
 40
0.0
  0
LTYPE
  5
16
330
5
100
AcDbSymbolTableRecord
100
AcDbLinetypeTableRecord
  2
Continuous
 70
     0
  3
Solid line
 72
    65
 73
     0
 40
0.0
  0
LTYPE
  5
6E
330
5
100
AcDbSymbolTableRecord
100
AcDbLinetypeTableRecord
  2
HIDDEN
 70
     0
  3
Hidden __ __ __ __ __ __ __ __ __ __ __ __ __ __
 72
    65
 73
     2
 40
1.905
 49
1.27
 74
     0
 49
-0.635
 74
     0
  0
LTYPE
  5
6F
330
5
100
AcDbSymbolTableRecord
100
AcDbLinetypeTableRecord
  2
PHANTOM
 70
     0
  3
Phantom ______  __  __  ______  __  __  ______
 72
    65
 73
     6
 40
12.7
 49
6.35
 74
     0
 49
-1.27
 74
     0
 49
1.27
 74
     0
 49
-1.27
 74
     0
 49
1.27
 74
     0
 49
-1.27
 74
     0
  0
LTYPE
  5
70
330
5
100
AcDbSymbolTableRecord
100
AcDbLinetypeTableRecord
  2
CENTER
 70
     0
  3
Center ____ _ ____ _ ____ _ ____ _ ____ _ ____
 72
    65
 73
     4
 40
10.16
 49
6.35
 74
     0
 49
-1.27
 74
     0
 49
1.27
 74
     0
 49
-1.27
 74
     0
  0
LTYPE
  5
71
330
5
100
AcDbSymbolTableRecord
100
AcDbLinetypeTableRecord
  2
CENTERX2
 70
     0
  3
Center (2x) ________  __  ________  __  _____
 72
    65
 73
     4
 40
20.32
 49
12.7
 74
     0
 49
-2.54
 74
     0
 49
2.54
 74
     0
 49
-2.54
 74
     0
  0
LTYPE
  5
72
330
5
100
AcDbSymbolTableRecord
100
AcDbLinetypeTableRecord
  2
DOT2
 70
     0
  3
Dot (.5x) ........................................
 72
    65
 73
     2
 40
0.635
 49
0.0
 74
     0
 49
-0.635
 74
     0
  0
ENDTAB
  0
TABLE
  2
LAYER
  5
2
330
0
100
AcDbSymbolTable
 70
    17
  0
LAYER
  5
10
330
2
100
AcDbSymbolTableRecord
100
AcDbLayerTableRecord
  2
0
 70
     0
 62
     7
  6
Continuous
370
    -3
390
F
  0
LAYER
  5
73
330
2
100
AcDbSymbolTableRecord
100
AcDbLayerTableRecord
  2
FORMAT
 70
     0
 62
     7
  6
Continuous
370
    -3
390
F
  0
LAYER
  5
74
330
2
100
AcDbSymbolTableRecord
100
AcDbLayerTableRecord
  2
YARDIMCI_GEOMETRI
 70
     0
 62
    -6
  6
Continuous
290
     0
370
    -3
390
F
  0
LAYER
  5
75
330
2
100
AcDbSymbolTableRecord
100
AcDbLayerTableRecord
  2
SAYFA_CERCEVESI
 70
     0
 62
     7
  6
Continuous
370
    25
390
F
  0
LAYER
  5
76
330
2
100
AcDbSymbolTableRecord
100
AcDbLayerTableRecord
  2
ANTET
 70
     0
 62
     7
  6
Continuous
370
    -3
390
F
  0
LAYER
  5
77
330
2
100
AcDbSymbolTableRecord
100
AcDbLayerTableRecord
  2
OLCU
 70
     0
 62
   150
  6
Continuous
370
    -3
390
F
  0
LAYER
  5
78
330
2
100
AcDbSymbolTableRecord
100
AcDbLayerTableRecord
  2
METIN
 70
     0
 62
    96
  6
Continuous
370
    -3
390
F
  0
LAYER
  5
79
330
2
100
AcDbSymbolTableRecord
100
AcDbLayerTableRecord
  2
BALON
 70
     0
 62
     5
  6
Continuous
370
    -3
390
F
  0
LAYER
  5
7A
330
2
100
AcDbSymbolTableRecord
100
AcDbLayerTableRecord
  2
VURGU
 70
     0
 62
     7
  6
Continuous
370
    -3
390
F
  0
LAYER
  5
7B
330
2
100
AcDbSymbolTableRecord
100
AcDbLayerTableRecord
  2
SILIK
 70
     0
 62
     7
  6
Continuous
370
    -3
390
F
  0
LAYER
  5
7C
330
2
100
AcDbSymbolTableRecord
100
AcDbLayerTableRecord
  2
MODEL
 70
     0
 62
     7
  6
Continuous
370
    -3
390
F
  0
LAYER
  5
7D
330
2
100
AcDbSymbolTableRecord
100
AcDbLayerTableRecord
  2
DETAYLANDıRMA
 70
     0
 62
   190
  6
Continuous
370
    -3
390
F
  0
LAYER
  5
7E
330
2
100
AcDbSymbolTableRecord
100
AcDbLayerTableRecord
  2
TOLERANS
 70
     0
 62
   230
  6
Continuous
370
    -3
390
F
  0
LAYER
  5
7F
330
2
100
AcDbSymbolTableRecord
100
AcDbLayerTableRecord
  2
MERKEZ_CIZGILERI
 70
     0
 62
    30
  6
Continuous
370
    -3
390
F
  0
LAYER
  5
80
330
2
100
AcDbSymbolTableRecord
100
AcDbLayerTableRecord
  2
KESIT-DETAY_CIZGILERI
 70
     0
 62
     7
  6
Continuous
370
    -3
390
F
  0
LAYER
  5
81
330
2
100
AcDbSymbolTableRecord
100
AcDbLayerTableRecord
  2
\U+041E\U+0421\U+0415\U+0412\U+042B\U+0415
 70
     0
 62
     7
  6
Continuous
370
    -3
390
F
  0
LAYER
  5
82
330
2
100
AcDbSymbolTableRecord
100
AcDbLayerTableRecord
  2
\U+0412\U+041E\U+0414\U+042F\U+041D\U+042B\U+0415_\U+0417\U+041D\U+0410\U+041A\U+0418
 70
     0
 62
    11
  6
Continuous
370
    -3
390
F
  0
ENDTAB
  0
TABLE
  2
STYLE
  5
3
330
0
100
AcDbSymbolTable
 70
     1
  0
STYLE
  5
11
330
3
100
AcDbSymbolTableRecord
100
AcDbTextStyleTableRecord
  2
Standard
 70
     0
 40
0.0
 41
1.0
 50
0.0
 71
     0
 42
3.5
  3
txt
  4

  0
ENDTAB
  0
TABLE
  2
VIEW
  5
6
330
0
100
AcDbSymbolTable
 70
     0
  0
ENDTAB
  0
TABLE
  2
UCS
  5
7
330
0
100
AcDbSymbolTable
 70
     0
  0
ENDTAB
  0
TABLE
  2
APPID
  5
9
330
0
100
AcDbSymbolTable
 70
     1
  0
APPID
  5
12
330
9
100
AcDbSymbolTableRecord
100
AcDbRegAppTableRecord
  2
ACAD
 70
     0
  0
ENDTAB
  0
TABLE
  2
DIMSTYLE
  5
A
330
0
100
AcDbSymbolTable
 70
     1
100
AcDbDimStyleTable
  0
DIMSTYLE
105
27
330
A
100
AcDbSymbolTableRecord
100
AcDbDimStyleTableRecord
  2
ISO-25
 70
     0
 41
2.5
 42
0.625
 43
3.75
 44
1.25
 73
     0
 74
     0
 77
     1
 78
     8
140
2.5
141
2.5
143
0.0393700787
147
0.625
171
     3
172
     1
178
     0
271
     2
272
     2
274
     3
278
    44
283
     0
284
     8
340
11
  0
ENDTAB
  0
TABLE
  2
BLOCK_RECORD
  5
1
330
0
100
AcDbSymbolTable
 70
     2
  0
BLOCK_RECORD
  5
1F
330
1
100
AcDbSymbolTableRecord
100
AcDbBlockTableRecord
  2
*Model_Space
340
22
  0
BLOCK_RECORD
  5
1B
330
1
100
AcDbSymbolTableRecord
100
AcDbBlockTableRecord
  2
*Paper_Space
340
1E
  0
BLOCK_RECORD
  5
23
330
1
100
AcDbSymbolTableRecord
100
AcDbBlockTableRecord
  2
*Paper_Space0
340
26
  0
BLOCK_RECORD
  5
8E
330
1
100
AcDbSymbolTableRecord
100
AcDbBlockTableRecord
  2
SW_CENTERMARKSYMBOL_0
340
0
102
{BLKREFS
331
99
102
}
  0
ENDTAB
  0
ENDSEC
  0
SECTION
  2
BLOCKS
  0
BLOCK
  5
20
330
1F
100
AcDbEntity
  8
0
100
AcDbBlockBegin
  2
*Model_Space
 70
     0
 10
0.0
 20
0.0
 30
0.0
  3
*Model_Space
  1

  0
ENDBLK
  5
21
330
1F
100
AcDbEntity
  8
0
100
AcDbBlockEnd
  0
BLOCK
  5
1C
330
1B
100
AcDbEntity
 67
     1
  8
0
100
AcDbBlockBegin
  2
*Paper_Space
 70
     0
 10
0.0
 20
0.0
 30
0.0
  3
*Paper_Space
  1

  0
ENDBLK
  5
1D
330
1B
100
AcDbEntity
 67
     1
  8
0
100
AcDbBlockEnd
  0
BLOCK
  5
24
330
23
100
AcDbEntity
  8
0
100
AcDbBlockBegin
  2
*Paper_Space0
 70
     0
 10
0.0
 20
0.0
 30
0.0
  3
*Paper_Space0
  1

  0
ENDBLK
  5
25
330
23
100
AcDbEntity
  8
0
100
AcDbBlockEnd
  0
BLOCK
  5
8F
330
8E
100
AcDbEntity
  8
0
100
AcDbBlockBegin
  2
SW_CENTERMARKSYMBOL_0
 70
     0
 10
0.0
 20
0.0
 30
0.0
  3
SW_CENTERMARKSYMBOL_0
  1

  0
LINE
  5
91
330
8E
100
AcDbEntity
  8
FORMAT
 62
     0
100
AcDbLine
 10
0.0
 20
0.0
 30
0.0
 11
0.0
 21
2.5
 31
0.0
  0
LINE
  5
92
330
8E
100
AcDbEntity
  8
FORMAT
 62
     0
100
AcDbLine
 10
0.0
 20
0.0
 30
0.0
 11
-2.5
 21
0.0
 31
0.0
  0
LINE
  5
93
330
8E
100
AcDbEntity
  8
FORMAT
 62
     0
100
AcDbLine
 10
0.0
 20
0.0
 30
0.0
 11
0.0
 21
-2.5
 31
0.0
  0
LINE
  5
94
330
8E
100
AcDbEntity
  8
FORMAT
 62
     0
100
AcDbLine
 10
0.0
 20
0.0
 30
0.0
 11
2.5
 21
0.0
 31
0.0
  0
LINE
  5
95
330
8E
100
AcDbEntity
  8
FORMAT
 62
     0
100
AcDbLine
 10
0.0
 20
5.0
 30
0.0
 11
0.0
 21
12.5
 31
0.0
  0
LINE
  5
96
330
8E
100
AcDbEntity
  8
FORMAT
 62
     0
100
AcDbLine
 10
-5.0
 20
0.0
 30
0.0
 11
-12.5
 21
0.0
 31
0.0
  0
LINE
  5
97
330
8E
100
AcDbEntity
  8
FORMAT
 62
     0
100
AcDbLine
 10
0.0
 20
-5.0
 30
0.0
 11
0.0
 21
-12.5
 31
0.0
  0
LINE
  5
98
330
8E
100
AcDbEntity
  8
FORMAT
 62
     0
100
AcDbLine
 10
5.0
 20
0.0
 30
0.0
 11
12.5
 21
0.0
 31
0.0
  0
ENDBLK
  5
90
330
8E
100
AcDbEntity
  8
0
100
AcDbBlockEnd
  0
ENDSEC
  0
SECTION
  2
ENTITIES
  0
CIRCLE
  5
83
330
1F
100
AcDbEntity
  8
0
  6
Continuous
 62
     7
370
    25
100
AcDbCircle
 10
139.8323425481
 20
108.7440552885
 30
0.0
 40
7.0
  0
CIRCLE
  5
84
330
1F
100
AcDbEntity
  8
0
  6
Continuous
 62
     7
370
    25
100
AcDbCircle
 10
139.8323425481
 20
108.7440552885
 30
0.0
 40
10.00000000000003
  0
CIRCLE
  5
85
330
1F
100
AcDbEntity
  8
0
  6
Continuous
 62
     7
370
    25
100
AcDbCircle
 10
139.8323425481
 20
108.7440552885
 30
0.0
 40
5.349999999999994
  0
CIRCLE
  5
86
330
1F
100
AcDbEntity
  8
0
  6
Continuous
 62
     7
370
    25
100
AcDbCircle
 10
139.8323425481
 20
108.7440552885
 30
0.0
 40
10.50000000000003
  0
CIRCLE
  5
87
330
1F
100
AcDbEntity
  8
0
  6
Continuous
 62
     7
370
    25
100
AcDbCircle
 10
139.8323425481
 20
108.7440552885
 30
0.0
 40
11.00000000000003
  0
LINE
  5
88
330
1F
100
AcDbEntity
  8
0
  6
Continuous
 62
     7
370
    25
100
AcDbLine
 10
126.3323425481
 20
116.5382839225
 30
0.0
 11
126.3323425481
 21
100.9498266544
 31
0.0
  0
LINE
  5
89
330
1F
100
AcDbEntity
  8
0
  6
Continuous
 62
     7
370
    25
100
AcDbLine
 10
139.8323425481
 20
124.3325125566
 30
0.0
 11
126.3323425481
 21
116.5382839225
 31
0.0
  0
LINE
  5
8A
330
1F
100
AcDbEntity
  8
0
  6
Continuous
 62
     7
370
    25
100
AcDbLine
 10
153.3323425481
 20
116.5382839225
 30
0.0
 11
139.8323425481
 21
124.3325125566
 31
0.0
  0
LINE
  5
8B
330
1F
100
AcDbEntity
  8
0
  6
Continuous
 62
     7
370
    25
100
AcDbLine
 10
153.3323425481
 20
100.9498266544
 30
0.0
 11
153.3323425481
 21
116.5382839225
 31
0.0
  0
LINE
  5
8C
330
1F
100
AcDbEntity
  8
0
  6
Continuous
 62
     7
370
    25
100
AcDbLine
 10
139.8323425481
 20
93.1555980203
 30
0.0
 11
153.3323425481
 21
100.9498266544
 31
0.0
  0
LINE
  5
8D
330
1F
100
AcDbEntity
  8
0
  6
Continuous
 62
     7
370
    25
100
AcDbLine
 10
126.3323425481
 20
100.9498266544
 30
0.0
 11
139.8323425481
 21
93.1555980203
 31
0.0
  0
INSERT
  5
99
330
1F
100
AcDbEntity
  8
FORMAT
 62
     7
100
AcDbBlockReference
  2
SW_CENTERMARKSYMBOL_0
 10
139.8323425481
 20
108.7440552885
 30
0.0
  0
LINE
  5
9A
330
1F
100
AcDbEntity
  8
0
  6
Continuous
 62
     7
370
    25
100
AcDbLine
 10
150.8323425481
 20
153.137405077
 30
0.0
 11
150.8323425481
 21
164.637405077
 31
0.0
  0
LINE
  5
9B
330
1F
100
AcDbEntity
  8
0
  6
Continuous
 62
     7
370
    25
100
AcDbLine
 10
128.8323425481
 20
164.637405077
 30
0.0
 11
128.8323425481
 21
153.137405077
 31
0.0
  0
ARC
  5
9C
330
1F
100
AcDbEntity
  8
0
  6
Continuous
 62
     7
370
    25
100
AcDbCircle
 10
150.3323425481
 20
164.637405077
 30
0.0
 40
0.5
100
AcDbArc
 50
0.0
 51
90.0
  0
ARC
  5
9D
330
1F
100
AcDbEntity
  8
0
  6
Continuous
 62
     7
370
    25
100
AcDbCircle
 10
129.3323425481
 20
164.637405077
 30
0.0
 40
0.5
100
AcDbArc
 50
90.0
 51
180.0
  0
LINE
  5
9E
330
1F
100
AcDbEntity
  8
0
  6
Continuous
 62
     7
370
    25
100
AcDbLine
 10
129.3523425481
 20
138.137405077
 30
0.0
 11
131.0843933556
 21
137.137405077
 31
0.0
  0
LINE
  5
9F
330
1F
100
AcDbEntity
  8
0
  6
Continuous
 62
     7
370
    25
100
AcDbLine
 10
148.5802917405
 20
137.137405077
 30
0.0
 11
150.3123425481
 21
138.137405077
 31
0.0
  0
LINE
  5
A0
330
1F
100
AcDbEntity
  8
0
  6
Continuous
 62
     7
370
    25
100
AcDbLine
 10
150.3123425481
 20
138.137405077
 30
0.0
 11
148.5802917405
 21
139.137405077
 31
0.0
  0
LINE
  5
A1
330
1F
100
AcDbEntity
  8
0
  6
Continuous
 62
     7
370
    25
100
AcDbLine
 10
131.0843933556
 20
139.137405077
 30
0.0
 11
129.3523425481
 21
138.137405077
 31
0.0
  0
LINE
  5
A2
330
1F
100
AcDbEntity
  8
0
  6
Continuous
 62
     7
370
    25
100
AcDbLine
 10
129.3523425481
 20
140.137405077
 30
0.0
 11
131.0843933556
 21
139.137405077
 31
0.0
  0
LINE
  5
A3
330
1F
100
AcDbEntity
  8
0
  6
Continuous
 62
     7
370
    25
100
AcDbLine
 10
148.5802917405
 20
139.137405077
 30
0.0
 11
150.3123425481
 21
140.137405077
 31
0.0
  0
LINE
  5
A4
330
1F
100
AcDbEntity
  8
0
  6
Continuous
 62
     7
370
    25
100
AcDbLine
 10
150.3123425481
 20
140.137405077
 30
0.0
 11
148.5802917405
 21
141.137405077
 31
0.0
  0
LINE
  5
A5
330
1F
100
AcDbEntity
  8
0
  6
Continuous
 62
     7
370
    25
100
AcDbLine
 10
131.0843933556
 20
141.137405077
 30
0.0
 11
129.3523425481
 21
140.137405077
 31
0.0
  0
LINE
  5
A6
330
1F
100
AcDbEntity
  8
0
  6
Continuous
 62
     7
370
    25
100
AcDbLine
 10
129.3523425481
 20
142.137405077
 30
0.0
 11
131.0843933556
 21
141.137405077
 31
0.0
  0
LINE
  5
A7
330
1F
100
AcDbEntity
  8
0
  6
Continuous
 62
     7
370
    25
100
AcDbLine
 10
148.5802917405
 20
141.137405077
 30
0.0
 11
150.3123425481
 21
142.137405077
 31
0.0
  0
LINE
  5
A8
330
1F
100
AcDbEntity
  8
0
  6
Continuous
 62
     7
370
    25
100
AcDbLine
 10
150.3123425481
 20
142.137405077
 30
0.0
 11
148.5802917405
 21
143.137405077
 31
0.0
  0
LINE
  5
A9
330
1F
100
AcDbEntity
  8
0
  6
Continuous
 62
     7
370
    25
100
AcDbLine
 10
131.0843933556
 20
143.137405077
 30
0.0
 11
129.3523425481
 21
142.137405077
 31
0.0
  0
LINE
  5
AA
330
1F
100
AcDbEntity
  8
0
  6
Continuous
 62
     7
370
    25
100
AcDbLine
 10
129.3523425481
 20
144.137405077
 30
0.0
 11
131.0843933556
 21
143.137405077
 31
0.0
  0
LINE
  5
AB
330
1F
100
AcDbEntity
  8
0
  6
Continuous
 62
     7
370
    25
100
AcDbLine
 10
148.5802917405
 20
143.137405077
 30
0.0
 11
150.3123425481
 21
144.137405077
 31
0.0
  0
LINE
  5
AC
330
1F
100
AcDbEntity
  8
0
  6
Continuous
 62
     7
370
    25
100
AcDbLine
 10
150.3123425481
 20
144.137405077
 30
0.0
 11
150.3123425481
 21
149.137405077
 31
0.0
  0
LINE
  5
AD
330
1F
100
AcDbEntity
  8
0
  6
Continuous
 62
     7
370
    25
100
AcDbLine
 10
129.3523425481
 20
149.137405077
 30
0.0
 11
129.3523425481
 21
144.137405077
 31
0.0
  0
LINE
  5
AE
330
1F
100
AcDbEntity
  8
0
  6
Continuous
 62
     7
370
    25
100
AcDbLine
 10
149.8323425481
 20
165.137405077
 30
0.0
 11
149.8323425481
 21
213.137405077
 31
0.0
  0
LINE
  5
AF
330
1F
100
AcDbEntity
  8
0
  6
Continuous
 62
     7
370
    25
100
AcDbLine
 10
129.8323425481
 20
213.137405077
 30
0.0
 11
129.8323425481
 21
165.137405077
 31
0.0
  0
LINE
  5
B0
330
1F
100
AcDbEntity
  8
0
  6
Continuous
 62
     7
370
    25
100
AcDbLine
 10
139.8323425481
 20
153.137405077
 30
0.0
 11
139.8323425481
 21
149.137405077
 31
0.0
  0
LINE
  5
B1
330
1F
100
AcDbEntity
  8
0
  6
Continuous
 62
     7
370
    25
100
AcDbLine
 10
139.8323425481
 20
153.137405077
 30
0.0
 11
153.3323425481
 21
153.137405077
 31
0.0
  0
LINE
  5
B2
330
1F
100
AcDbEntity
  8
0
  6
Continuous
 62
     7
370
    25
100
AcDbLine
 10
153.3323425481
 20
153.137405077
 30
0.0
 11
153.3323425481
 21
149.137405077
 31
0.0
  0
LINE
  5
B3
330
1F
100
AcDbEntity
  8
0
  6
Continuous
 62
     7
370
    25
100
AcDbLine
 10
139.8323425481
 20
149.137405077
 30
0.0
 11
153.3323425481
 21
149.137405077
 31
0.0
  0
LINE
  5
B4
330
1F
100
AcDbEntity
  8
0
  6
Continuous
 62
     7
370
    25
100
AcDbLine
 10
126.3323425481
 20
153.137405077
 30
0.0
 11
126.3323425481
 21
149.137405077
 31
0.0
  0
LINE
  5
B5
330
1F
100
AcDbEntity
  8
0
  6
Continuous
 62
     7
370
    25
100
AcDbLine
 10
126.3323425481
 20
153.137405077
 30
0.0
 11
139.8323425481
 21
153.137405077
 31
0.0
  0
LINE
  5
B6
330
1F
100
AcDbEntity
  8
0
  6
Continuous
 62
     7
370
    25
100
AcDbLine
 10
126.3323425481
 20
149.137405077
 30
0.0
 11
139.8323425481
 21
149.137405077
 31
0.0
  0
LINE
  5
B7
330
1F
100
AcDbEntity
  8
0
  6
Continuous
 62
     7
370
    25
100
AcDbLine
 10
150.3323425473
 20
165.137405077
 30
0.0
 11
129.3323425481
 21
165.137405077
 31
0.0
  0
LINE
  5
B8
330
1F
100
AcDbEntity
  8
0
  6
Continuous
 62
     7
370
    25
100
AcDbLine
 10
150.3123425481
 20
138.137405077
 30
0.0
 11
129.3523425481
 21
138.137405077
 31
0.0
  0
LINE
  5
B9
330
1F
100
AcDbEntity
  8
0
  6
Continuous
 62
     7
370
    25
100
AcDbLine
 10
148.5802917405
 20
137.137405077
 30
0.0
 11
131.0843933556
 21
137.137405077
 31
0.0
  0
LINE
  5
BA
330
1F
100
AcDbEntity
  8
0
  6
Continuous
 62
     7
370
    25
100
AcDbLine
 10
148.5802917405
 20
139.137405077
 30
0.0
 11
131.0843933556
 21
139.137405077
 31
0.0
  0
LINE
  5
BB
330
1F
100
AcDbEntity
  8
0
  6
Continuous
 62
     7
370
    25
100
AcDbLine
 10
150.3123425481
 20
140.137405077
 30
0.0
 11
129.3523425481
 21
140.137405077
 31
0.0
  0
LINE
  5
BC
330
1F
100
AcDbEntity
  8
0
  6
Continuous
 62
     7
370
    25
100
AcDbLine
 10
148.5802917405
 20
141.137405077
 30
0.0
 11
131.0843933556
 21
141.137405077
 31
0.0
  0
LINE
  5
BD
330
1F
100
AcDbEntity
  8
0
  6
Continuous
 62
     7
370
    25
100
AcDbLine
 10
150.3123425481
 20
142.137405077
 30
0.0
 11
129.3523425481
 21
142.137405077
 31
0.0
  0
LINE
  5
BE
330
1F
100
AcDbEntity
  8
0
  6
Continuous
 62
     7
370
    25
100
AcDbLine
 10
148.5802917405
 20
143.137405077
 30
0.0
 11
131.0843933556
 21
143.137405077
 31
0.0
  0
LINE
  5
BF
330
1F
100
AcDbEntity
  8
0
  6
Continuous
 62
     7
370
    25
100
AcDbLine
 10
150.3123425481
 20
144.137405077
 30
0.0
 11
129.3523425481
 21
144.137405077
 31
0.0
  0
LINE
  5
C0
330
1F
100
AcDbEntity
  8
0
  6
Continuous
 62
     7
370
    25
100
AcDbLine
 10
149.8323425481
 20
213.137405077
 30
0.0
 11
129.8323425481
 21
213.137405077
 31
0.0
  0
LINE
  5
C1
330
1F
100
AcDbEntity
  8
0
  6
Continuous
 62
     1
370
    25
100
AcDbLine
 10
150.8323425481
 20
164.637405077
 30
0.0
 11
128.8323425481
 21
164.637405077
 31
0.0
  0
LINE
  5
C2
330
1F
100
AcDbEntity
  8
0
  6
Continuous
 62
     7
370
    25
100
AcDbLine
 10
209.119244041
 20
97.7440552885
 30
0.0
 11
220.619244041
 21
97.7440552885
 31
0.0
  0
LINE
  5
C3
330
1F
100
AcDbEntity
  8
0
  6
Continuous
 62
     7
370
    25
100
AcDbLine
 10
220.619244041
 20
119.7440552885
 30
0.0
 11
209.119244041
 21
119.7440552885
 31
0.0
  0
ARC
  5
C4
330
1F
100
AcDbEntity
  8
0
  6
Continuous
 62
     7
370
    25
100
AcDbCircle
 10
220.619244041
 20
98.2440552885
 30
0.0
 40
0.5
100
AcDbArc
 50
270.0
 51
0.0
  0
ARC
  5
C5
330
1F
100
AcDbEntity
  8
0
  6
Continuous
 62
     7
370
    25
100
AcDbCircle
 10
220.619244041
 20
119.2440552885
 30
0.0
 40
0.5
100
AcDbArc
 50
0.0
 51
90.0
  0
LINE
  5
C6
330
1F
100
AcDbEntity
  8
0
  6
Continuous
 62
     7
370
    25
100
AcDbLine
 10
194.119244041
 20
119.2240552885
 30
0.0
 11
193.119244041
 21
117.4920044809
 31
0.0
  0
LINE
  5
C7
330
1F
100
AcDbEntity
  8
0
  6
Continuous
 62
     7
370
    25
100
AcDbLine
 10
193.119244041
 20
99.996106096
 30
0.0
 11
194.119244041
 21
98.2640552885
 31
0.0
  0
LINE
  5
C8
330
1F
100
AcDbEntity
  8
0
  6
Continuous
 62
     7
370
    25
100
AcDbLine
 10
194.119244041
 20
98.2640552885
 30
0.0
 11
195.119244041
 21
99.996106096
 31
0.0
  0
LINE
  5
C9
330
1F
100
AcDbEntity
  8
0
  6
Continuous
 62
     7
370
    25
100
AcDbLine
 10
195.119244041
 20
117.4920044809
 30
0.0
 11
194.119244041
 21
119.2240552885
 31
0.0
  0
LINE
  5
CA
330
1F
100
AcDbEntity
  8
0
  6
Continuous
 62
     7
370
    25
100
AcDbLine
 10
196.119244041
 20
119.2240552885
 30
0.0
 11
195.119244041
 21
117.4920044809
 31
0.0
  0
LINE
  5
CB
330
1F
100
AcDbEntity
  8
0
  6
Continuous
 62
     7
370
    25
100
AcDbLine
 10
195.119244041
 20
99.996106096
 30
0.0
 11
196.119244041
 21
98.2640552885
 31
0.0
  0
LINE
  5
CC
330
1F
100
AcDbEntity
  8
0
  6
Continuous
 62
     7
370
    25
100
AcDbLine
 10
196.119244041
 20
98.2640552885
 30
0.0
 11
197.119244041
 21
99.996106096
 31
0.0
  0
LINE
  5
CD
330
1F
100
AcDbEntity
  8
0
  6
Continuous
 62
     7
370
    25
100
AcDbLine
 10
197.119244041
 20
117.4920044809
 30
0.0
 11
196.119244041
 21
119.2240552885
 31
0.0
  0
LINE
  5
CE
330
1F
100
AcDbEntity
  8
0
  6
Continuous
 62
     7
370
    25
100
AcDbLine
 10
198.119244041
 20
119.2240552885
 30
0.0
 11
197.119244041
 21
117.4920044809
 31
0.0
  0
LINE
  5
CF
330
1F
100
AcDbEntity
  8
0
  6
Continuous
 62
     7
370
    25
100
AcDbLine
 10
197.119244041
 20
99.996106096
 30
0.0
 11
198.119244041
 21
98.2640552885
 31
0.0
  0
LINE
  5
D0
330
1F
100
AcDbEntity
  8
0
  6
Continuous
 62
     7
370
    25
100
AcDbLine
 10
198.119244041
 20
98.2640552885
 30
0.0
 11
199.119244041
 21
99.996106096
 31
0.0
  0
LINE
  5
D1
330
1F
100
AcDbEntity
  8
0
  6
Continuous
 62
     7
370
    25
100
AcDbLine
 10
199.119244041
 20
117.4920044809
 30
0.0
 11
198.119244041
 21
119.2240552885
 31
0.0
  0
LINE
  5
D2
330
1F
100
AcDbEntity
  8
0
  6
Continuous
 62
     7
370
    25
100
AcDbLine
 10
200.119244041
 20
119.2240552885
 30
0.0
 11
199.119244041
 21
117.4920044809
 31
0.0
  0
LINE
  5
D3
330
1F
100
AcDbEntity
  8
0
  6
Continuous
 62
     7
370
    25
100
AcDbLine
 10
199.119244041
 20
99.996106096
 30
0.0
 11
200.119244041
 21
98.2640552885
 31
0.0
  0
LINE
  5
D4
330
1F
100
AcDbEntity
  8
0
  6
Continuous
 62
     7
370
    25
100
AcDbLine
 10
200.119244041
 20
98.2640552885
 30
0.0
 11
205.119244041
 21
98.2640552885
 31
0.0
  0
LINE
  5
D5
330
1F
100
AcDbEntity
  8
0
  6
Continuous
 62
     7
370
    25
100
AcDbLine
 10
205.119244041
 20
119.2240552885
 30
0.0
 11
200.119244041
 21
119.2240552885
 31
0.0
  0
LINE
  5
D6
330
1F
100
AcDbEntity
  8
0
  6
Continuous
 62
     7
370
    25
100
AcDbLine
 10
221.119244041
 20
98.7440552885
 30
0.0
 11
269.119244041
 21
98.7440552885
 31
0.0
  0
LINE
  5
D7
330
1F
100
AcDbEntity
  8
0
  6
Continuous
 62
     7
370
    25
100
AcDbLine
 10
269.119244041
 20
118.7440552885
 30
0.0
 11
221.119244041
 21
118.7440552885
 31
0.0
  0
LINE
  5
D8
330
1F
100
AcDbEntity
  8
0
  6
Continuous
 62
     7
370
    25
100
AcDbLine
 10
209.119244041
 20
124.3325125566
 30
0.0
 11
205.119244041
 21
124.3325125566
 31
0.0
  0
LINE
  5
D9
330
1F
100
AcDbEntity
  8
0
  6
Continuous
 62
     7
370
    25
100
AcDbLine
 10
209.119244041
 20
124.3325125566
 30
0.0
 11
209.119244041
 21
116.5382839225
 31
0.0
  0
LINE
  5
DA
330
1F
100
AcDbEntity
  8
0
  6
Continuous
 62
     7
370
    25
100
AcDbLine
 10
209.119244041
 20
116.5382839225
 30
0.0
 11
205.119244041
 21
116.5382839225
 31
0.0
  0
LINE
  5
DB
330
1F
100
AcDbEntity
  8
0
  6
Continuous
 62
     7
370
    25
100
AcDbLine
 10
205.119244041
 20
124.3325125566
 30
0.0
 11
205.119244041
 21
116.5382839225
 31
0.0
  0
LINE
  5
DC
330
1F
100
AcDbEntity
  8
0
  6
Continuous
 62
     7
370
    25
100
AcDbLine
 10
209.119244041
 20
116.5382839225
 30
0.0
 11
209.119244041
 21
100.9498266544
 31
0.0
  0
LINE
  5
DD
330
1F
100
AcDbEntity
  8
0
  6
Continuous
 62
     7
370
    25
100
AcDbLine
 10
209.119244041
 20
100.9498266544
 30
0.0
 11
205.119244041
 21
100.9498266544
 31
0.0
  0
LINE
  5
DE
330
1F
100
AcDbEntity
  8
0
  6
Continuous
 62
     7
370
    25
100
AcDbLine
 10
205.119244041
 20
116.5382839225
 30
0.0
 11
205.119244041
 21
100.9498266544
 31
0.0
  0
LINE
  5
DF
330
1F
100
AcDbEntity
  8
0
  6
Continuous
 62
     7
370
    25
100
AcDbLine
 10
209.119244041
 20
100.9498266544
 30
0.0
 11
209.119244041
 21
93.1555980203
 31
0.0
  0
LINE
  5
E0
330
1F
100
AcDbEntity
  8
0
  6
Continuous
 62
     7
370
    25
100
AcDbLine
 10
209.119244041
 20
93.1555980203
 30
0.0
 11
205.119244041
 21
93.1555980203
 31
0.0
  0
LINE
  5
E1
330
1F
100
AcDbEntity
  8
0
  6
Continuous
 62
     7
370
    25
100
AcDbLine
 10
205.119244041
 20
100.9498266544
 30
0.0
 11
205.119244041
 21
93.1555980203
 31
0.0
  0
LINE
  5
E2
330
1F
100
AcDbEntity
  8
0
  6
Continuous
 62
     7
370
    25
100
AcDbLine
 10
221.119244041
 20
108.7440552885
 30
0.0
 11
221.119244041
 21
119.2440552885
 31
0.0
  0
LINE
  5
E3
330
1F
100
AcDbEntity
  8
0
  6
Continuous
 62
     7
370
    25
100
AcDbLine
 10
221.119244041
 20
98.2440552885
 30
0.0
 11
221.119244041
 21
108.7440552885
 31
0.0
  0
LINE
  5
E4
330
1F
100
AcDbEntity
  8
0
  6
Continuous
 62
     7
370
    25
100
AcDbLine
 10
194.119244041
 20
108.7440552885
 30
0.0
 11
194.119244041
 21
119.2240552885
 31
0.0
  0
LINE
  5
E5
330
1F
100
AcDbEntity
  8
0
  6
Continuous
 62
     7
370
    25
100
AcDbLine
 10
194.119244041
 20
98.2640552885
 30
0.0
 11
194.119244041
 21
108.7440552885
 31
0.0
  0
LINE
  5
E6
330
1F
100
AcDbEntity
  8
0
  6
Continuous
 62
     7
370
    25
100
AcDbLine
 10
193.119244041
 20
108.7440552885
 30
0.0
 11
193.119244041
 21
117.4920044809
 31
0.0
  0
LINE
  5
E7
330
1F
100
AcDbEntity
  8
0
  6
Continuous
 62
     7
370
    25
100
AcDbLine
 10
193.119244041
 20
99.996106096
 30
0.0
 11
193.119244041
 21
108.7440552885
 31
0.0
  0
LINE
  5
E8
330
1F
100
AcDbEntity
  8
0
  6
Continuous
 62
     7
370
    25
100
AcDbLine
 10
195.119244041
 20
108.7440552885
 30
0.0
 11
195.119244041
 21
117.4920044809
 31
0.0
  0
LINE
  5
E9
330
1F
100
AcDbEntity
  8
0
  6
Continuous
 62
     7
370
    25
100
AcDbLine
 10
195.119244041
 20
99.996106096
 30
0.0
 11
195.119244041
 21
108.7440552885
 31
0.0
  0
LINE
  5
EA
330
1F
100
AcDbEntity
  8
0
  6
Continuous
 62
     7
370
    25
100
AcDbLine
 10
196.119244041
 20
108.7440552885
 30
0.0
 11
196.119244041
 21
119.2240552885
 31
0.0
  0
LINE
  5
EB
330
1F
100
AcDbEntity
  8
0
  6
Continuous
 62
     7
370
    25
100
AcDbLine
 10
196.119244041
 20
98.2640552885
 30
0.0
 11
196.119244041
 21
108.7440552885
 31
0.0
  0
LINE
  5
EC
330
1F
100
AcDbEntity
  8
0
  6
Continuous
 62
     7
370
    25
100
AcDbLine
 10
197.119244041
 20
108.7440552885
 30
0.0
 11
197.119244041
 21
117.4920044809
 31
0.0
  0
LINE
  5
ED
330
1F
100
AcDbEntity
  8
0
  6
Continuous
 62
     7
370
    25
100
AcDbLine
 10
197.119244041
 20
99.996106096
 30
0.0
 11
197.119244041
 21
108.7440552885
 31
0.0
  0
LINE
  5
EE
330
1F
100
AcDbEntity
  8
0
  6
Continuous
 62
     7
370
    25
100
AcDbLine
 10
198.119244041
 20
108.7440552885
 30
0.0
 11
198.119244041
 21
119.2240552885
 31
0.0
  0
LINE
  5
EF
330
1F
100
AcDbEntity
  8
0
  6
Continuous
 62
     7
370
    25
100
AcDbLine
 10
198.119244041
 20
98.2640552885
 30
0.0
 11
198.119244041
 21
108.7440552885
 31
0.0
  0
LINE
  5
F0
330
1F
100
AcDbEntity
  8
0
  6
Continuous
 62
     7
370
    25
100
AcDbLine
 10
199.119244041
 20
108.7440552885
 30
0.0
 11
199.119244041
 21
117.4920044809
 31
0.0
  0
LINE
  5
F1
330
1F
100
AcDbEntity
  8
0
  6
Continuous
 62
     7
370
    25
100
AcDbLine
 10
199.119244041
 20
99.996106096
 30
0.0
 11
199.119244041
 21
108.7440552885
 31
0.0
  0
LINE
  5
F2
330
1F
100
AcDbEntity
  8
0
  6
Continuous
 62
     7
370
    25
100
AcDbLine
 10
200.119244041
 20
108.7440552885
 30
0.0
 11
200.119244041
 21
119.2240552885
 31
0.0
  0
LINE
  5
F3
330
1F
100
AcDbEntity
  8
0
  6
Continuous
 62
     7
370
    25
100
AcDbLine
 10
200.119244041
 20
98.2640552885
 30
0.0
 11
200.119244041
 21
108.7440552885
 31
0.0
  0
LINE
  5
F4
330
1F
100
AcDbEntity
  8
0
  6
Continuous
 62
     7
370
    25
100
AcDbLine
 10
269.119244041
 20
108.7440552885
 30
0.0
 11
269.119244041
 21
118.7440552885
 31
0.0
  0
LINE
  5
F5
330
1F
100
AcDbEntity
  8
0
  6
Continuous
 62
     7
370
    25
100
AcDbLine
 10
269.119244041
 20
98.7440552885
 30
0.0
 11
269.119244041
 21
108.7440552885
 31
0.0
  0
LINE
  5
F6
330
1F
100
AcDbEntity
  8
0
  6
Continuous
 62
     1
370
    25
100
AcDbLine
 10
220.619244041
 20
108.7440552885
 30
0.0
 11
220.619244041
 21
119.7440552885
 31
0.0
  0
LINE
  5
F7
330
1F
100
AcDbEntity
  8
0
  6
Continuous
 62
     1
370
    25
100
AcDbLine
 10
220.619244041
 20
97.7440552885
 30
0.0
 11
220.619244041
 21
108.7440552885
 31
0.0
  0
LINE
  5
F8
330
1F
100
AcDbEntity
  8
0
  6
Continuous
 62
     7
370
    25
100
AcDbLine
 10
70.6317308965
 20
119.7440552885
 30
0.0
 11
59.1317308965
 21
119.7440552885
 31
0.0
  0
LINE
  5
F9
330
1F
100
AcDbEntity
  8
0
  6
Continuous
 62
     7
370
    25
100
AcDbLine
 10
59.1317308965
 20
97.7440552885
 30
0.0
 11
70.6317308965
 21
97.7440552885
 31
0.0
  0
ARC
  5
FA
330
1F
100
AcDbEntity
  8
0
  6
Continuous
 62
     7
370
    25
100
AcDbCircle
 10
59.1317308965
 20
119.2440552885
 30
0.0
 40
0.5000000000000071
100
AcDbArc
 50
90.0
 51
180.0
  0
ARC
  5
FB
330
1F
100
AcDbEntity
  8
0
  6
Continuous
 62
     7
370
    25
100
AcDbCircle
 10
59.1317308965
 20
98.2440552885
 30
0.0
 40
0.5000000000000071
100
AcDbArc
 50
180.0
 51
270.0
  0
LINE
  5
FC
330
1F
100
AcDbEntity
  8
0
  6
Continuous
 62
     7
370
    25
100
AcDbLine
 10
85.6317308965
 20
98.2640552885
 30
0.0
 11
86.6317308965
 21
99.996106096
 31
0.0
  0
LINE
  5
FD
330
1F
100
AcDbEntity
  8
0
  6
Continuous
 62
     7
370
    25
100
AcDbLine
 10
86.6317308965
 20
117.4920044809
 30
0.0
 11
85.6317308965
 21
119.2240552885
 31
0.0
  0
LINE
  5
FE
330
1F
100
AcDbEntity
  8
0
  6
Continuous
 62
     7
370
    25
100
AcDbLine
 10
85.6317308965
 20
119.2240552885
 30
0.0
 11
84.6317308965
 21
117.4920044809
 31
0.0
  0
LINE
  5
FF
330
1F
100
AcDbEntity
  8
0
  6
Continuous
 62
     7
370
    25
100
AcDbLine
 10
84.6317308965
 20
99.996106096
 30
0.0
 11
85.6317308965
 21
98.2640552885
 31
0.0
  0
LINE
  5
100
330
1F
100
AcDbEntity
  8
0
  6
Continuous
 62
     7
370
    25
100
AcDbLine
 10
83.6317308965
 20
98.2640552885
 30
0.0
 11
84.6317308965
 21
99.996106096
 31
0.0
  0
LINE
  5
101
330
1F
100
AcDbEntity
  8
0
  6
Continuous
 62
     7
370
    25
100
AcDbLine
 10
84.6317308965
 20
117.4920044809
 30
0.0
 11
83.6317308965
 21
119.2240552885
 31
0.0
  0
LINE
  5
102
330
1F
100
AcDbEntity
  8
0
  6
Continuous
 62
     7
370
    25
100
AcDbLine
 10
83.6317308965
 20
119.2240552885
 30
0.0
 11
82.6317308965
 21
117.4920044809
 31
0.0
  0
LINE
  5
103
330
1F
100
AcDbEntity
  8
0
  6
Continuous
 62
     7
370
    25
100
AcDbLine
 10
82.6317308965
 20
99.996106096
 30
0.0
 11
83.6317308965
 21
98.2640552885
 31
0.0
  0
LINE
  5
104
330
1F
100
AcDbEntity
  8
0
  6
Continuous
 62
     7
370
    25
100
AcDbLine
 10
81.6317308965
 20
98.2640552885
 30
0.0
 11
82.6317308965
 21
99.996106096
 31
0.0
  0
LINE
  5
105
330
1F
100
AcDbEntity
  8
0
  6
Continuous
 62
     7
370
    25
100
AcDbLine
 10
82.6317308965
 20
117.4920044809
 30
0.0
 11
81.6317308965
 21
119.2240552885
 31
0.0
  0
LINE
  5
106
330
1F
100
AcDbEntity
  8
0
  6
Continuous
 62
     7
370
    25
100
AcDbLine
 10
81.6317308965
 20
119.2240552885
 30
0.0
 11
80.6317308965
 21
117.4920044809
 31
0.0
  0
LINE
  5
107
330
1F
100
AcDbEntity
  8
0
  6
Continuous
 62
     7
370
    25
100
AcDbLine
 10
80.6317308965
 20
99.996106096
 30
0.0
 11
81.6317308965
 21
98.2640552885
 31
0.0
  0
LINE
  5
108
330
1F
100
AcDbEntity
  8
0
  6
Continuous
 62
     7
370
    25
100
AcDbLine
 10
79.6317308965
 20
98.2640552885
 30
0.0
 11
80.6317308965
 21
99.996106096
 31
0.0
  0
LINE
  5
109
330
1F
100
AcDbEntity
  8
0
  6
Continuous
 62
     7
370
    25
100
AcDbLine
 10
80.6317308965
 20
117.4920044809
 30
0.0
 11
79.6317308965
 21
119.2240552885
 31
0.0
  0
LINE
  5
10A
330
1F
100
AcDbEntity
  8
0
  6
Continuous
 62
     7
370
    25
100
AcDbLine
 10
79.6317308965
 20
119.2240552885
 30
0.0
 11
74.6317308965
 21
119.2240552885
 31
0.0
  0
LINE
  5
10B
330
1F
100
AcDbEntity
  8
0
  6
Continuous
 62
     7
370
    25
100
AcDbLine
 10
74.6317308965
 20
98.2640552885
 30
0.0
 11
79.6317308965
 21
98.2640552885
 31
0.0
  0
LINE
  5
10C
330
1F
100
AcDbEntity
  8
0
  6
Continuous
 62
     7
370
    25
100
AcDbLine
 10
58.6317308965
 20
118.7440552885
 30
0.0
 11
10.6317308965
 21
118.7440552885
 31
0.0
  0
LINE
  5
10D
330
1F
100
AcDbEntity
  8
0
  6
Continuous
 62
     7
370
    25
100
AcDbLine
 10
10.6317308965
 20
98.7440552885
 30
0.0
 11
58.6317308965
 21
98.7440552885
 31
0.0
  0
LINE
  5
10E
330
1F
100
AcDbEntity
  8
0
  6
Continuous
 62
     7
370
    25
100
AcDbLine
 10
70.6317308965
 20
93.1555980203
 30
0.0
 11
74.6317308965
 21
93.1555980203
 31
0.0
  0
LINE
  5
10F
330
1F
100
AcDbEntity
  8
0
  6
Continuous
 62
     7
370
    25
100
AcDbLine
 10
70.6317308965
 20
93.1555980203
 30
0.0
 11
70.6317308965
 21
100.9498266544
 31
0.0
  0
LINE
  5
110
330
1F
100
AcDbEntity
  8
0
  6
Continuous
 62
     7
370
    25
100
AcDbLine
 10
70.6317308965
 20
100.9498266544
 30
0.0
 11
74.6317308965
 21
100.9498266544
 31
0.0
  0
LINE
  5
111
330
1F
100
AcDbEntity
  8
0
  6
Continuous
 62
     7
370
    25
100
AcDbLine
 10
74.6317308965
 20
93.1555980203
 30
0.0
 11
74.6317308965
 21
100.9498266544
 31
0.0
  0
LINE
  5
112
330
1F
100
AcDbEntity
  8
0
  6
Continuous
 62
     7
370
    25
100
AcDbLine
 10
70.6317308965
 20
100.9498266544
 30
0.0
 11
70.6317308965
 21
116.5382839225
 31
0.0
  0
LINE
  5
113
330
1F
100
AcDbEntity
  8
0
  6
Continuous
 62
     7
370
    25
100
AcDbLine
 10
70.6317308965
 20
116.5382839225
 30
0.0
 11
74.6317308965
 21
116.5382839225
 31
0.0
  0
LINE
  5
114
330
1F
100
AcDbEntity
  8
0
  6
Continuous
 62
     7
370
    25
100
AcDbLine
 10
74.6317308965
 20
100.9498266544
 30
0.0
 11
74.6317308965
 21
116.5382839225
 31
0.0
  0
LINE
  5
115
330
1F
100
AcDbEntity
  8
0
  6
Continuous
 62
     7
370
    25
100
AcDbLine
 10
70.6317308965
 20
116.5382839225
 30
0.0
 11
70.6317308965
 21
124.3325125566
 31
0.0
  0
LINE
  5
116
330
1F
100
AcDbEntity
  8
0
  6
Continuous
 62
     7
370
    25
100
AcDbLine
 10
70.6317308965
 20
124.3325125566
 30
0.0
 11
74.6317308965
 21
124.3325125566
 31
0.0
  0
LINE
  5
117
330
1F
100
AcDbEntity
  8
0
  6
Continuous
 62
     7
370
    25
100
AcDbLine
 10
74.6317308965
 20
116.5382839225
 30
0.0
 11
74.6317308965
 21
124.3325125566
 31
0.0
  0
LINE
  5
118
330
1F
100
AcDbEntity
  8
0
  6
Continuous
 62
     7
370
    25
100
AcDbLine
 10
58.6317308965
 20
119.2440552885
 30
0.0
 11
58.6317308965
 21
98.2440552885
 31
0.0
  0
LINE
  5
119
330
1F
100
AcDbEntity
  8
0
  6
Continuous
 62
     7
370
    25
100
AcDbLine
 10
85.6317308965
 20
119.2240552885
 30
0.0
 11
85.6317308965
 21
98.2640552885
 31
0.0
  0
LINE
  5
11A
330
1F
100
AcDbEntity
  8
0
  6
Continuous
 62
     7
370
    25
100
AcDbLine
 10
86.6317308965
 20
117.4920044809
 30
0.0
 11
86.6317308965
 21
99.996106096
 31
0.0
  0
LINE
  5
11B
330
1F
100
AcDbEntity
  8
0
  6
Continuous
 62
     7
370
    25
100
AcDbLine
 10
84.6317308965
 20
117.4920044809
 30
0.0
 11
84.6317308965
 21
99.996106096
 31
0.0
  0
LINE
  5
11C
330
1F
100
AcDbEntity
  8
0
  6
Continuous
 62
     7
370
    25
100
AcDbLine
 10
83.6317308965
 20
119.2240552885
 30
0.0
 11
83.6317308965
 21
98.2640552885
 31
0.0
  0
LINE
  5
11D
330
1F
100
AcDbEntity
  8
0
  6
Continuous
 62
     7
370
    25
100
AcDbLine
 10
82.6317308965
 20
117.4920044809
 30
0.0
 11
82.6317308965
 21
99.996106096
 31
0.0
  0
LINE
  5
11E
330
1F
100
AcDbEntity
  8
0
  6
Continuous
 62
     7
370
    25
100
AcDbLine
 10
81.6317308965
 20
119.2240552885
 30
0.0
 11
81.6317308965
 21
98.2640552885
 31
0.0
  0
LINE
  5
11F
330
1F
100
AcDbEntity
  8
0
  6
Continuous
 62
     7
370
    25
100
AcDbLine
 10
80.6317308965
 20
117.4920044809
 30
0.0
 11
80.6317308965
 21
99.996106096
 31
0.0
  0
LINE
  5
120
330
1F
100
AcDbEntity
  8
0
  6
Continuous
 62
     7
370
    25
100
AcDbLine
 10
79.6317308965
 20
119.2240552885
 30
0.0
 11
79.6317308965
 21
98.2640552885
 31
0.0
  0
LINE
  5
121
330
1F
100
AcDbEntity
  8
0
  6
Continuous
 62
     7
370
    25
100
AcDbLine
 10
10.6317308965
 20
118.7440552885
 30
0.0
 11
10.6317308965
 21
98.7440552885
 31
0.0
  0
LINE
  5
122
330
1F
100
AcDbEntity
  8
0
  6
Continuous
 62
     1
370
    25
100
AcDbLine
 10
59.1317308965
 20
119.7440552885
 30
0.0
 11
59.1317308965
 21
97.7440552885
 31
0.0
  0
LINE
  5
123
330
1F
100
AcDbEntity
  8
0
  6
Continuous
 62
     7
370
    25
100
AcDbLine
 10
233.2098350937
 20
44.3317403485
 30
0.0
 11
199.2687095967
 21
63.9255350323
 31
0.0
  0
LINE
  5
124
330
1F
100
AcDbEntity
  8
0
  6
Continuous
 62
     7
370
    25
100
AcDbLine
 10
189.2695222704
 20
46.6045577847
 30
0.0
 11
223.2106477673
 21
27.0107631009
 31
0.0
  0
SPLINE
  5
125
330
1F
100
AcDbEntity
  8
0
  6
Continuous
 62
     7
370
    25
100
AcDbSpline
210
0.0
220
0.0
230
1.0
 70
     8
 71
     3
 72
    14
 73
    10
 74
     0
 42
0.00000001
 43
0.00000001
 40
0.0
 40
0.0
 40
0.0
 40
0.0
 40
0.0408591138433429
 40
0.202361519907591
 40
0.3638893103558622
 40
0.5259218971804257
 40
0.688876665488256
 40
0.8530080039831646
 40
1.0
 40
1.0
 40
1.0
 40
1.0
 10
234.0478959107328
 20
44.99674642577351
 30
0.0
 10
234.0148769812178
 20
45.01739060360261
 30
0.0
 10
233.8513452710589
 20
45.11963430910144
 30
0.0
 10
233.5309604983909
 20
45.25740980055752
 30
0.0
 10
233.0892187016077
 20
45.4068301624951
 30
0.0
 10
232.6243828570731
 20
45.50461545604573
 30
0.0
 10
232.1406151397455
 20
45.55354620855853
 30
0.0
 10
231.6588157340119
 20
45.55749501472965
 30
0.0
 10
231.3336819334739
 20
45.52082391313642
 30
0.0
 10
231.1800706127782
 20
45.50349844178344
 30
0.0
  0
SPLINE
  5
126
330
1F
100
AcDbEntity
  8
0
  6
Continuous
 62
     7
370
    25
100
AcDbSpline
210
0.0
220
0.0
230
1.0
 70
     8
 71
     3
 72
    14
 73
    10
 74
     0
 42
0.00000001
 43
0.00000001
 40
0.0
 40
0.0
 40
0.0
 40
0.0
 40
0.0493699544854256
 40
0.2214181707481595
 40
0.3923580077592433
 40
0.5619855156915026
 40
0.7302409735789244
 40
0.8972587219414512
 40
1.0
 40
1.0
 40
1.0
 40
1.0
 10
221.1846522238982
 20
28.18034543287461
 30
0.0
 10
221.2030781952768
 20
28.13238999342519
 30
0.0
 10
221.2857164095398
 20
27.91731574855323
 30
0.0
 10
221.4708241121334
 20
27.57026593831947
 30
0.0
 10
221.7393775272098
 20
27.14437228590155
 30
0.0
 10
222.044569570709
 20
26.76258182692829
 30
0.0
 10
222.3820556012322
 20
26.42624425360763
 30
0.0
 10
222.6990215814406
 20
26.16593469927977
 30
0.0
 10
222.9140990224877
 20
26.03728392417958
 30
0.0
 10
222.9960140985758
 20
25.98828558209487
 30
0.0
  0
LINE
  5
127
330
1F
100
AcDbEntity
  8
0
  6
Continuous
 62
     7
370
    25
100
AcDbLine
 10
242.1950758342
 20
40.29934054
 30
0.0
 11
234.0633478506
 21
44.993687183
 31
0.0
  0
LINE
  5
128
330
1F
100
AcDbEntity
  8
0
  6
Continuous
 62
     7
370
    25
100
AcDbLine
 10
223.0642417916
 20
25.9406122106
 30
0.0
 11
231.1959697752
 21
21.2462655676
 31
0.0
  0
LWPOLYLINE
  5
129
330
1F
100
AcDbEntity
  8
0
  6
Continuous
 62
     7
370
    25
100
AcDbPolyline
 90
       82
 70
   128
 43
0.0
 10
187.1980481217
 20
51.1830058494
 10
187.2193112386
 20
51.8280380264
 10
187.2829727105
 20
52.4937407762
 10
187.3886496697
 20
53.1761104842
 10
187.5357065626
 20
53.8710432987
 10
187.7232589718
 20
54.5743598118
 10
187.9501789349
 20
55.2818301955
 10
188.2151017287
 20
55.9891996394
 10
188.5164340762
 20
56.6922139406
 10
188.8523637294
 20
57.3866450884
 10
189.2208703676
 20
58.0683166921
 10
189.6197377487
 20
58.7331290984
 10
190.0465670372
 20
59.3770840474
 10
190.4987912316
 20
59.9963087181
 10
190.9736906025
 20
60.5870790206
 10
191.468409049
 20
61.1458419928
 10
191.9799712763
 20
61.6692371684
 10
192.5053006888
 20
62.1541167872
 10
193.0412378939
 20
62.5975647262
 10
193.5845597019
 20
62.9969140372
 10
194.1319985116
 20
63.3497629865
 10
194.6802619617
 20
63.6539894991
 10
195.2260527312
 20
63.9077639208
 10
195.7660883701
 20
64.1095600224
 10
196.2971210407
 20
64.2581641785
 10
196.81595705
 20
64.3526826662
 10
197.3194760571
 20
64.3925470401
 10
197.8046498395
 20
64.3775175512
 10
198.268560505
 20
64.3076845887
 10
198.7084180402
 20
64.1834681361
 10
199.1215770902
 20
64.0056152459
 10
199.5055528679
 20
63.7751955463
 10
199.8580360977
 20
63.4935948084
 10
200.176906904
 20
63.1625066122
 10
200.4602475603
 20
62.7839221611
 10
200.7063540225
 20
62.3601183065
 10
200.9137461774
 20
61.8936438547
 10
201.0811767442
 20
61.3873042379
 10
201.2076387758
 20
60.8441446422
 10
201.2923717145
 20
60.2674316932
 10
201.3348659666
 20
59.6606338105
 10
201.3348659666
 20
59.0274003479
 10
201.2923717145
 20
58.3715396461
 10
201.2076387758
 20
57.6969961284
 10
201.0811767442
 20
57.007826579
 10
200.9137461774
 20
56.3081757445
 10
200.7063540225
 20
55.6022514075
 10
200.4602475603
 20
54.8942990799
 10
200.176906904
 20
54.1885764704
 10
199.8580360977
 20
53.4893278777
 10
199.5055528679
 20
52.8007586653
 10
199.1215770902
 20
52.1270099693
 10
198.7084180402
 20
51.4721337936
 10
198.268560505
 20
50.8400686407
 10
197.8046498395
 20
50.2346158248
 10
197.3194760571
 20
49.6594166103
 10
196.81595705
 20
49.117930313
 10
196.2971210407
 20
48.6134134952
 10
195.7660883701
 20
48.1489003804
 10
195.2260527312
 20
47.7271846052
 10
194.6802619617
 20
47.3508024177
 10
194.1319985116
 20
47.0220174248
 10
193.5845597019
 20
46.7428069782
 10
193.0412378939
 20
46.5148502823
 10
192.5053006888
 20
46.3395182954
 10
191.9799712763
 20
46.2178654848
 10
191.468409049
 20
46.1506234849
 10
190.9736906025
 20
46.1381966968
 10
190.4987912316
 20
46.1806598568
 10
190.0465670372
 20
46.2777575865
 10
189.6197377486
 20
46.4289059286
 10
189.2208703676
 20
46.6331958592
 10
188.8523637294
 20
46.8893987547
 10
188.5164340762
 20
47.1959737808
 10
188.2151017287
 20
47.551077159
 10
187.9501789349
 20
47.952573256
 10
187.7232589718
 20
48.3980474269
 10
187.5357065626
 20
48.8848205377
 10
187.3886496697
 20
49.4099650776
 10
187.2829727105
 20
49.9703227656
 10
187.2193112386
 20
50.5625235446
 10
187.1980481217
 20
51.1830058494
  0
LWPOLYLINE
  5
12A
330
1F
100
AcDbEntity
  8
0
  6
Continuous
 62
     7
370
    25
100
AcDbPolyline
 90
       42
 70
   128
 43
0.0
 10
233.2098350937
 20
44.3317403485
 10
233.4466783649
 20
44.1814008626
 10
233.7991615947
 20
43.8998001247
 10
234.118032401
 20
43.5687119285
 10
234.4013730573
 20
43.1901274774
 10
234.6474795195
 20
42.7663236228
 10
234.8548716744
 20
42.299849171
 10
235.0223022412
 20
41.7935095542
 10
235.1487642727
 20
41.2503499584
 10
235.2334972114
 20
40.6736370094
 10
235.2759914635
 20
40.0668391267
 10
235.2759914635
 20
39.4336056642
 10
235.2334972114
 20
38.7777449624
 10
235.1487642727
 20
38.1032014447
 10
235.0223022412
 20
37.4140318952
 10
234.8548716744
 20
36.7143810607
 10
234.6474795195
 20
36.0084567237
 10
234.4013730573
 20
35.3005043961
 10
234.118032401
 20
34.5947817866
 10
233.7991615947
 20
33.895533194
 10
233.4466783649
 20
33.2069639815
 10
233.0627025872
 20
32.5332152855
 10
232.6495435372
 20
31.8783391099
 10
232.2096860019
 20
31.246273957
 10
231.7457753364
 20
30.6408211411
 10
231.260601554
 20
30.0656219266
 10
230.7570825469
 20
29.5241356293
 10
230.2382465377
 20
29.0196188115
 10
229.7072138671
 20
28.5551056967
 10
229.1671782281
 20
28.1333899214
 10
228.6213874586
 20
27.757007734
 10
228.0731240086
 20
27.4282227411
 10
227.5256851988
 20
27.1490122945
 10
226.9823633908
 20
26.9210555985
 10
226.4464261858
 20
26.7457236116
 10
225.9210967732
 20
26.6240708011
 10
225.4095345459
 20
26.5568288011
 10
224.9148160994
 20
26.5444020131
 10
224.4399167286
 20
26.5868651731
 10
223.9876925341
 20
26.6839629027
 10
223.5608632456
 20
26.8351112448
 10
223.2106477673
 20
27.0107631009
  0
LWPOLYLINE
  5
12B
330
1F
100
AcDbEntity
  8
0
  6
Continuous
 62
     7
370
    25
100
AcDbPolyline
 90
       69
 70
   128
 43
0.0
 10
189.3193684652
 20
52.4076180171
 10
189.3404832153
 20
52.9471934709
 10
189.403647322
 20
53.5065440287
 10
189.5083218913
 20
54.0808975088
 10
189.6536138768
 20
54.6653537298
 10
189.8382836984
 20
55.2549263172
 10
190.0607558185
 20
55.8445852457
 10
190.3191321832
 20
56.4292997532
 10
190.6112084165
 20
57.0040812617
 10
190.934492627
 20
57.564025938
 10
191.2862266678
 20
58.1043565315
 10
191.6634096681
 20
58.6204631321
 10
192.0628236355
 20
59.1079425004
 10
192.4810609109
 20
59.5626356342
 10
192.9145532413
 20
59.9806632519
 10
193.3596022229
 20
60.3584588895
 10
193.8124108549
 20
60.6927993276
 10
194.2691159336
 20
60.9808320917
 10
194.7258210122
 20
61.2200997876
 10
195.1786296442
 20
61.4085610677
 10
195.6236786258
 20
61.5446080469
 10
196.0571709562
 20
61.6270800204
 10
196.4754082316
 20
61.6552733662
 10
196.874822199
 20
61.6289475488
 10
197.2520051993
 20
61.5483271707
 10
197.6037392401
 20
61.4141000566
 10
197.9270234506
 20
61.2274113848
 10
198.2190996839
 20
60.9898539173
 10
198.4774760486
 20
60.7034544107
 10
198.6999481687
 20
60.3706563245
 10
198.8846179903
 20
59.9942989747
 10
199.0299099758
 20
59.5775933095
 10
199.1345845451
 20
59.1240945147
 10
199.1977486518
 20
58.6376716821
 10
199.2188634019
 20
58.1224747998
 10
199.1977486518
 20
57.582899346
 10
199.1345845451
 20
57.0235487882
 10
199.0299099758
 20
56.4491953081
 10
198.8846179903
 20
55.8647390872
 10
198.6999481687
 20
55.2751664997
 10
198.4774760486
 20
54.6855075712
 10
198.2190996839
 20
54.1007930637
 10
197.9270234506
 20
53.5260115552
 10
197.6037392401
 20
52.966066879
 10
197.2520051993
 20
52.4257362854
 10
196.874822199
 20
51.9096296848
 10
196.4754082316
 20
51.4221503165
 10
196.0571709562
 20
50.9674571828
 10
195.6236786258
 20
50.549429565
 10
195.1786296442
 20
50.1716339274
 10
194.7258210122
 20
49.8372934893
 10
194.2691159336
 20
49.5492607253
 10
193.8124108549
 20
49.3099930294
 10
193.3596022229
 20
49.1215317492
 10
192.9145532413
 20
48.98548477
 10
192.4810609109
 20
48.9030127965
 10
192.0628236355
 20
48.8748194507
 10
191.6634096681
 20
48.9011452681
 10
191.2862266678
 20
48.9817656462
 10
190.934492627
 20
49.1159927604
 10
190.6112084165
 20
49.3026814321
 10
190.3191321832
 20
49.5402388996
 10
190.0607558185
 20
49.8266384062
 10
189.8382836984
 20
50.1594364924
 10
189.6536138768
 20
50.5357938422
 10
189.5083218913
 20
50.9524995074
 10
189.403647322
 20
51.4059983022
 10
189.3404832153
 20
51.8924211348
 10
189.3193684652
 20
52.4076180171
  0
LINE
  5
12C
330
1F
100
AcDbEntity
  8
0
  6
Continuous
 62
     7
370
    25
100
AcDbLine
 10
223.0642417916
 20
25.9406122106
 30
0.0
 11
222.9987193552
 21
25.979349602
 31
0.0
  0
LWPOLYLINE
  5
12D
330
1F
100
AcDbEntity
  8
0
  6
Continuous
 62
     7
370
    25
100
AcDbPolyline
 90
       45
 70
   128
 43
0.0
 10
242.1950758342
 20
40.29934054
 10
242.2461071771
 20
40.2693289943
 10
242.6333679319
 20
40.0023409522
 10
242.9881982357
 20
39.6849443746
 10
243.3086601285
 20
39.3188727716
 10
243.5930033584
 20
38.9061254993
 10
243.8396749413
 20
38.4489568402
 10
244.0473276427
 20
37.949863691
 10
244.2148273355
 20
37.4115719255
 10
244.3412591944
 20
36.8370215064
 10
244.4259326924
 20
36.2293504291
 10
244.4683853724
 20
35.5918775822
 10
244.4683853724
 20
34.9280846214
 10
244.4259326924
 20
34.2415969535
 10
244.3412591944
 20
33.5361639363
 10
244.2148273355
 20
32.8156384001
 10
244.0473276427
 20
32.0839556058
 10
243.8396749413
 20
31.3451117508
 10
243.5930033584
 20
30.6031421442
 10
243.3086601285
 20
29.8620991666
 10
242.9881982357
 20
29.1260301379
 10
242.6333679319
 20
28.3989552118
 10
242.2461071771
 20
27.6848454194
 10
241.8285310553
 20
26.9876009808
 10
241.3829202223
 20
26.3110300033
 10
240.9117084501
 20
25.658827683
 10
240.417469334
 20
25.0345561228
 10
239.9029022366
 20
24.4416248775
 10
239.370817545
 20
23.8832723319
 10
238.8241213212
 20
23.362548014
 10
238.2657994304
 20
22.8822959395
 10
237.6989012333
 20
22.4451390786
 10
237.1265229311
 20
22.0534650306
 10
236.5517906557
 20
21.7094129832
 10
235.9778433954
 20
21.4148620295
 10
235.4078158512
 20
21.1714209046
 10
234.8448213159
 20
20.9804191994
 10
234.2919346703
 20
20.8429000992
 10
233.7521755896
 20
20.7596146855
 10
233.2284920507
 20
20.7310178344
 10
232.7237442315
 20
20.757265732
 10
232.2406888896
 20
20.8382150213
 10
231.7819643058
 20
20.9734235854
 10
231.3500758745
 20
21.162152962
 10
231.1959697752
 20
21.2462655676
  0
LINE
  5
12E
330
1F
100
AcDbEntity
  8
0
  6
Continuous
 62
     7
370
    25
100
AcDbLine
 10
227.1495812587
 20
23.5821959365
 30
0.0
 11
227.1495812587
 21
18.8977425221
 31
0.0
  0
LINE
  5
12F
330
1F
100
AcDbEntity
  8
0
  6
Continuous
 62
     7
370
    25
100
AcDbLine
 10
236.6955228047
 20
43.5014146075
 30
0.0
 11
236.68056096
 21
43.482802215
 31
0.0
  0
LINE
  5
130
330
1F
100
AcDbEntity
  8
0
  6
Continuous
 62
     7
370
    25
100
AcDbLine
 10
246.2414643508
 20
42.6478635855
 30
0.0
 11
236.6955228047
 21
43.5014146075
 31
0.0
  0
LINE
  5
131
330
1F
100
AcDbEntity
  8
0
  6
Continuous
 62
     7
370
    25
100
AcDbLine
 10
246.2414643508
 20
29.9192520317
 30
0.0
 11
246.2414643508
 21
42.6478635855
 31
0.0
  0
LINE
  5
132
330
1F
100
AcDbEntity
  8
0
  6
Continuous
 62
     7
370
    25
100
AcDbLine
 10
236.6955228047
 20
18.0441915
 30
0.0
 11
246.2414643508
 21
29.9192520317
 31
0.0
  0
LINE
  5
133
330
1F
100
AcDbEntity
  8
0
  6
Continuous
 62
     7
370
    25
100
AcDbLine
 10
227.1495812587
 20
18.8977425221
 30
0.0
 11
236.6955228047
 21
18.0441915
 31
0.0
  0
LINE
  5
134
330
1F
100
AcDbEntity
  8
0
  6
Continuous
 62
     7
370
    25
100
AcDbLine
 10
236.6955228047
 20
18.0441915
 30
0.0
 11
239.5239499295
 21
16.4113752764
 31
0.0
  0
LINE
  5
135
330
1F
100
AcDbEntity
  8
0
  6
Continuous
 62
     7
370
    25
100
AcDbLine
 10
246.2414643508
 20
29.9192520317
 30
0.0
 11
249.0698914755
 21
28.2864358081
 31
0.0
  0
LINE
  5
136
330
1F
100
AcDbEntity
  8
0
  6
Continuous
 62
     7
370
    25
100
AcDbLine
 10
239.5239499295
 20
16.4113752764
 30
0.0
 11
249.0698914755
 21
28.2864358081
 31
0.0
  0
LINE
  5
137
330
1F
100
AcDbEntity
  8
0
  6
Continuous
 62
     7
370
    25
100
AcDbLine
 10
246.2414643508
 20
42.6478635855
 30
0.0
 11
249.0698914755
 21
41.0150473618
 31
0.0
  0
LINE
  5
138
330
1F
100
AcDbEntity
  8
0
  6
Continuous
 62
     7
370
    25
100
AcDbLine
 10
249.0698914755
 20
28.2864358081
 30
0.0
 11
249.0698914755
 21
41.0150473618
 31
0.0
  0
LWPOLYLINE
  5
139
330
1F
100
AcDbEntity
  8
0
  6
Continuous
 62
     7
370
    25
100
AcDbPolyline
 90
       35
 70
   128
 43
0.0
 10
249.0698914755
 20
35.5743293043
 10
249.3073244679
 20
35.3074212018
 10
249.5908063864
 20
34.9122484617
 10
249.8368774809
 20
34.4723219504
 10
250.0441282783
 20
33.9901615271
 10
250.2113716648
 20
33.468528963
 10
250.3376496856
 20
32.9104121223
 10
250.4222390315
 20
32.3190078476
 10
250.4646551823
 20
31.6977036491
 10
250.4646551823
 20
31.050058301
 10
250.4222390315
 20
30.3797814571
 10
250.3376496856
 20
29.6907124025
 10
250.2113716648
 20
28.9867980624
 10
250.0441282783
 20
28.2720703943
 10
249.8368774809
 20
27.5506232937
 10
249.5908063864
 20
26.8265891442
 10
249.3073244679
 20
26.1041151477
 10
248.988055484
 20
25.3873395701
 10
248.6348281785
 20
24.6803680367
 10
248.2496658056
 20
23.9872500166
 10
247.8347745404
 20
23.311955627
 10
247.3925308425
 20
22.6583528931
 10
246.9254678437
 20
22.030185592
 10
246.4362608386
 20
21.4310518093
 10
245.9277119607
 20
20.8643833289
 10
245.4027341317
 20
20.3334259766
 10
244.8643343773
 20
19.841221028
 10
244.3155966025
 20
19.3905877885
 10
243.7596639274
 20
18.9841074445
 10
243.1997206842
 20
18.6241082786
 10
242.638974177
 20
18.3126523334
 10
242.0806363111
 20
18.0515236003
 10
241.5279051951
 20
17.8422178011
 10
240.9839468229
 20
17.6859338205
 10
240.4681234457
 20
17.5859181544
  0
LINE
  5
13A
330
1F
100
AcDbEntity
  8
0
  6
Continuous
 62
     7
370
    25
100
AcDbLine
 10
227.1495812587
 20
18.8977425221
 30
0.0
 11
229.9780083835
 21
17.2649262985
 31
0.0
  0
LINE
  5
13B
330
1F
100
AcDbEntity
  8
0
  6
Continuous
 62
     7
370
    25
100
AcDbLine
 10
229.9780083835
 20
17.2649262985
 30
0.0
 11
239.5239499295
 21
16.4113752764
 31
0.0
  0
LWPOLYLINE
  5
13C
330
1F
100
AcDbEntity
  8
0
  6
Continuous
 62
     7
370
    25
100
AcDbPolyline
 90
       43
 70
   128
 43
0.0
 10
249.0698914755
 20
35.6484462646
 10
249.2489881028
 20
35.5830026536
 10
249.663879368
 20
35.3867315225
 10
250.0490417409
 20
35.1383125125
 10
250.4022690463
 20
34.8391685451
 10
250.7215380302
 20
34.4910130899
 10
251.0050199488
 20
34.0958403499
 10
251.2510910432
 20
33.6559138386
 10
251.4583418406
 20
33.1737534153
 10
251.6255852272
 20
32.6521208512
 10
251.751863248
 20
32.0940040105
 10
251.8364525938
 20
31.5025997358
 10
251.8788687447
 20
30.8812955373
 10
251.8788687447
 20
30.2336501891
 10
251.8364525938
 20
29.5633733452
 10
251.751863248
 20
28.8743042907
 10
251.6255852272
 20
28.1703899506
 10
251.4583418406
 20
27.4556622825
 10
251.2510910432
 20
26.7342151819
 10
251.0050199488
 20
26.0101810323
 10
250.7215380302
 20
25.2877070359
 10
250.4022690463
 20
24.5709314582
 10
250.0490417409
 20
23.8639599249
 10
249.663879368
 20
23.1708419048
 10
249.2489881028
 20
22.4955475152
 10
248.8067444049
 20
21.8419447813
 10
248.3396814061
 20
21.2137774802
 10
247.850474401
 20
20.6146436974
 10
247.341925523
 20
20.047975217
 10
246.8169476941
 20
19.5170178647
 10
246.2785479397
 20
19.0248129162
 10
245.7298101648
 20
18.5741796767
 10
245.1738774898
 20
18.1676993327
 10
244.6139342466
 20
17.8077001668
 10
244.0531877394
 20
17.4962442215
 10
243.4948498735
 20
17.2351154885
 10
242.9421187575
 20
17.0258096893
 10
242.3981603853
 20
16.8695257087
 10
241.8660905011
 20
16.7671587271
 10
241.3489567532
 20
16.7192950934
 10
240.8497212366
 20
16.7262089661
 10
240.3712435273
 20
16.7878607431
 10
239.919127731
 20
16.9029727045
  0
LWPOLYLINE
  5
13D
330
1F
100
AcDbEntity
  8
0
  6
Continuous
 62
     7
370
    25
100
AcDbPolyline
 90
       47
 70
   128
 43
0.0
 10
250.3724609347
 20
34.8675420899
 10
250.6632016652
 20
34.7665945417
 10
251.0780929304
 20
34.5703234107
 10
251.4632553033
 20
34.3219044007
 10
251.8164826087
 20
34.0227604333
 10
252.1357515926
 20
33.6746049781
 10
252.4192335112
 20
33.279432238
 10
252.6653046056
 20
32.8395057268
 10
252.872555403
 20
32.3573453035
 10
253.0397987896
 20
31.8357127394
 10
253.1660768103
 20
31.2775958987
 10
253.2506661562
 20
30.686191624
 10
253.2930823071
 20
30.0648874255
 10
253.2930823071
 20
29.4172420773
 10
253.2506661562
 20
28.7469652334
 10
253.1660768103
 20
28.0578961788
 10
253.0397987896
 20
27.3539818387
 10
252.872555403
 20
26.6392541707
 10
252.6653046056
 20
25.9178070701
 10
252.4192335112
 20
25.1937729205
 10
252.1357515926
 20
24.4712989241
 10
251.8164826087
 20
23.7545233464
 10
251.4632553033
 20
23.0475518131
 10
251.0780929304
 20
22.354433793
 10
250.6632016652
 20
21.6791394034
 10
250.2209579672
 20
21.0255366694
 10
249.7538949684
 20
20.3973693684
 10
249.2646879634
 20
19.7982355856
 10
248.7561390854
 20
19.2315671052
 10
248.2311612565
 20
18.7006097529
 10
247.6927615021
 20
18.2084048043
 10
247.1440237272
 20
17.7577715649
 10
246.5880910522
 20
17.3512912209
 10
246.0281478089
 20
16.9912920549
 10
245.4674013018
 20
16.6798361097
 10
244.9090634358
 20
16.4187073767
 10
244.3563323199
 20
16.2094015775
 10
243.8123739477
 20
16.0531175969
 10
243.2803040635
 20
15.9507506153
 10
242.7631703155
 20
15.9028869816
 10
242.263934799
 20
15.9098008542
 10
241.7854570897
 20
15.9714526313
 10
241.3304778646
 20
16.0874891768
 10
240.9016032037
 20
16.2572458442
 10
240.5012896619
 20
16.4797502824
 10
240.1318301992
 20
16.7537280064
 10
239.9891474232
 20
16.8811666758
  0
LWPOLYLINE
  5
13E
330
1F
100
AcDbEntity
  8
0
  6
Continuous
 62
     7
370
    25
100
AcDbPolyline
 90
       47
 70
   128
 43
0.0
 10
251.7866744971
 20
34.0511339781
 10
252.0774152275
 20
33.9501864299
 10
252.4923064928
 20
33.7539152989
 10
252.8774688657
 20
33.5054962888
 10
253.2306961711
 20
33.2063523215
 10
253.549965155
 20
32.8581968663
 10
253.8334470735
 20
32.4630241262
 10
254.079518168
 20
32.0230976149
 10
254.2867689654
 20
31.5409371916
 10
254.454012352
 20
31.0193046276
 10
254.5802903727
 20
30.4611877868
 10
254.6648797186
 20
29.8697835122
 10
254.7072958694
 20
29.2484793136
 10
254.7072958694
 20
28.6008339655
 10
254.6648797186
 20
27.9305571216
 10
254.5802903727
 20
27.241488067
 10
254.454012352
 20
26.5375737269
 10
254.2867689654
 20
25.8228460589
 10
254.079518168
 20
25.1013989582
 10
253.8334470735
 20
24.3773648087
 10
253.549965155
 20
23.6548908123
 10
253.2306961711
 20
22.9381152346
 10
252.8774688657
 20
22.2311437012
 10
252.4923064928
 20
21.5380256811
 10
252.0774152275
 20
20.8627312916
 10
251.6351715296
 20
20.2091285576
 10
251.1681085308
 20
19.5809612566
 10
250.6789015257
 20
18.9818274738
 10
250.1703526478
 20
18.4151589934
 10
249.6453748189
 20
17.8842016411
 10
249.1069750644
 20
17.3919966925
 10
248.5582372896
 20
16.941363453
 10
248.0023046145
 20
16.534883109
 10
247.4423613713
 20
16.1748839431
 10
246.8816148641
 20
15.8634279979
 10
246.3232769982
 20
15.6022992648
 10
245.7705458823
 20
15.3929934657
 10
245.22658751
 20
15.2367094851
 10
244.6945176259
 20
15.1343425035
 10
244.1773838779
 20
15.0864788697
 10
243.6781483613
 20
15.0933927424
 10
243.199670652
 20
15.1550445194
 10
242.744691427
 20
15.271081065
 10
242.315816766
 20
15.4408377324
 10
241.9155032243
 20
15.6633421706
 10
241.5460437616
 20
15.9373198945
 10
241.4033609856
 20
16.064758564
  0
LWPOLYLINE
  5
13F
330
1F
100
AcDbEntity
  8
0
  6
Continuous
 62
     1
370
    25
100
AcDbPolyline
 90
       51
 70
   128
 43
0.0
 10
231.6089239536
 20
45.2559266778
 10
232.0836032709
 20
45.2217943192
 10
232.5515576112
 20
45.1327168066
 10
232.9946452857
 20
44.9894448789
 10
233.4103283281
 20
44.7927991846
 10
233.7962257437
 20
44.5439060925
 10
234.1501271471
 20
44.2441912397
 10
234.4700054229
 20
43.8953713657
 10
234.7540283375
 20
43.4994444792
 10
235.0005690333
 20
43.0586784135
 10
235.2082153475
 20
42.5755978367
 10
235.3757779008
 20
42.0529697906
 10
235.5022969102
 20
41.4937878414
 10
235.5870476861
 20
40.9012549326
 10
235.6295447838
 20
40.2787650391
 10
235.6295447838
 20
39.6298837265
 10
235.5870476861
 20
38.9583277283
 10
235.5022969102
 20
38.2679436565
 10
235.3757779008
 20
37.5626859684
 10
235.2082153475
 20
36.8465943163
 10
235.0005690333
 20
36.1237704082
 10
234.7540283375
 20
35.3983545141
 10
234.4700054229
 20
34.6745017505
 10
234.1501271471
 20
33.9563582805
 10
233.7962257437
 20
33.2480375648
 10
233.4103283281
 20
32.5535968004
 10
232.9946452857
 20
31.8770136811
 10
232.5515576112
 20
31.2221636137
 10
232.0836032709
 20
30.5927975201
 10
231.5934626646
 20
29.9925203522
 10
231.0839432735
 20
29.4247704434
 10
230.5579635785
 20
28.8927998137
 10
230.0185363437
 20
28.3996555427
 10
229.4687513593
 20
27.9481623161
 10
228.911757744
 20
27.5409062463
 10
228.3507459069
 20
27.1802200591
 10
227.7889292728
 20
26.8681697323
 10
227.2295258765
 20
26.6065426619
 10
226.6757399302
 20
26.3968374242
 10
226.1307434695
 20
26.2402551917
 10
225.5976581848
 20
26.1376928533
 10
225.0795375404
 20
26.0897378768
 10
224.5793492843
 20
26.0966649439
 10
224.0999584496
 20
26.1584343769
 10
223.6441109436
 20
26.2746923663
 10
223.2144178195
 20
26.4447729968
 10
222.8133403206
 20
26.6677020618
 10
222.4431757826
 20
26.942202644
 10
222.1060444743
 20
27.2667024288
 10
221.8038774535
 20
27.6393427109
 10
221.6097366273
 20
27.9349494302
  0
LWPOLYLINE
  5
140
330
1F
100
AcDbEntity
  8
0
  6
Continuous
 62
     1
370
    25
100
AcDbPolyline
 90
       45
 70
   128
 43
0.0
 10
234.051585943
 20
45.0004482107
 10
234.1143791935
 20
44.9636756373
 10
234.5016399483
 20
44.6966875952
 10
234.8564702521
 20
44.3792910176
 10
235.1769321448
 20
44.0132194145
 10
235.4612753747
 20
43.6004721423
 10
235.7079469577
 20
43.1433034832
 10
235.9155996591
 20
42.644210334
 10
236.0830993518
 20
42.1059185684
 10
236.2095312107
 20
41.5313681494
 10
236.2942047088
 20
40.9236970721
 10
236.3366573887
 20
40.2862242252
 10
236.3366573887
 20
39.6224312643
 10
236.2942047088
 20
38.9359435965
 10
236.2095312107
 20
38.2305105793
 10
236.0830993518
 20
37.5099850431
 10
235.9155996591
 20
36.7783022487
 10
235.7079469577
 20
36.0394583938
 10
235.4612753747
 20
35.2974887872
 10
235.1769321448
 20
34.5564458096
 10
234.8564702521
 20
33.8203767809
 10
234.5016399483
 20
33.0933018548
 10
234.1143791935
 20
32.3791920624
 10
233.6968030716
 20
31.6819476238
 10
233.2511922387
 20
31.0053766463
 10
232.7799804665
 20
30.353174326
 10
232.2857413504
 20
29.7289027658
 10
231.771174253
 20
29.1359715205
 10
231.2390895613
 20
28.5776189749
 10
230.6923933375
 20
28.056894657
 10
230.1340714468
 20
27.5766425825
 10
229.5671732496
 20
27.1394857216
 10
228.9947949475
 20
26.7478116736
 10
228.420062672
 20
26.4037596262
 10
227.8461154118
 20
26.1092086725
 10
227.2760878676
 20
25.8657675475
 10
226.7130933322
 20
25.6747658424
 10
226.1602066866
 20
25.5372467422
 10
225.6204476059
 20
25.4539613285
 10
225.0967640671
 20
25.4253644774
 10
224.5920162479
 20
25.451612375
 10
224.108960906
 20
25.5325616642
 10
223.6502363221
 20
25.6677702283
 10
223.2183478909
 20
25.856499605
 10
223.0642417916
 20
25.9406122106
  0
LINE
  5
141
330
1F
100
AcDbEntity
  8
0
  6
Continuous
 62
     7
370
    25
100
AcDbLine
 10
128.8323425481
 20
63.4412001731
 30
0.0
 11
128.8323425481
 21
51.9412001731
 31
0.0
  0
LINE
  5
142
330
1F
100
AcDbEntity
  8
0
  6
Continuous
 62
     7
370
    25
100
AcDbLine
 10
150.8323425481
 20
51.9412001731
 30
0.0
 11
150.8323425481
 21
63.4412001731
 31
0.0
  0
ARC
  5
143
330
1F
100
AcDbEntity
  8
0
  6
Continuous
 62
     7
370
    25
100
AcDbCircle
 10
129.3323425481
 20
51.9412001731
 30
0.0
 40
0.5000000000000071
100
AcDbArc
 50
180.0
 51
270.0
  0
ARC
  5
144
330
1F
100
AcDbEntity
  8
0
  6
Continuous
 62
     7
370
    25
100
AcDbCircle
 10
150.3323425481
 20
51.9412001731
 30
0.0
 40
0.5000000000000071
100
AcDbArc
 50
270.0
 51
0.0
  0
LINE
  5
145
330
1F
100
AcDbEntity
  8
0
  6
Continuous
 62
     7
370
    25
100
AcDbLine
 10
150.3123425481
 20
78.4412001731
 30
0.0
 11
148.5802917405
 21
79.4412001731
 31
0.0
  0
LINE
  5
146
330
1F
100
AcDbEntity
  8
0
  6
Continuous
 62
     7
370
    25
100
AcDbLine
 10
131.0843933556
 20
79.4412001731
 30
0.0
 11
129.3523425481
 21
78.4412001731
 31
0.0
  0
LINE
  5
147
330
1F
100
AcDbEntity
  8
0
  6
Continuous
 62
     7
370
    25
100
AcDbLine
 10
129.3523425481
 20
78.4412001731
 30
0.0
 11
131.0843933556
 21
77.4412001731
 31
0.0
  0
LINE
  5
148
330
1F
100
AcDbEntity
  8
0
  6
Continuous
 62
     7
370
    25
100
AcDbLine
 10
148.5802917405
 20
77.4412001731
 30
0.0
 11
150.3123425481
 21
78.4412001731
 31
0.0
  0
LINE
  5
149
330
1F
100
AcDbEntity
  8
0
  6
Continuous
 62
     7
370
    25
100
AcDbLine
 10
150.3123425481
 20
76.4412001731
 30
0.0
 11
148.5802917405
 21
77.4412001731
 31
0.0
  0
LINE
  5
14A
330
1F
100
AcDbEntity
  8
0
  6
Continuous
 62
     7
370
    25
100
AcDbLine
 10
131.0843933556
 20
77.4412001731
 30
0.0
 11
129.3523425481
 21
76.4412001731
 31
0.0
  0
LINE
  5
14B
330
1F
100
AcDbEntity
  8
0
  6
Continuous
 62
     7
370
    25
100
AcDbLine
 10
129.3523425481
 20
76.4412001731
 30
0.0
 11
131.0843933556
 21
75.4412001731
 31
0.0
  0
LINE
  5
14C
330
1F
100
AcDbEntity
  8
0
  6
Continuous
 62
     7
370
    25
100
AcDbLine
 10
148.5802917405
 20
75.4412001731
 30
0.0
 11
150.3123425481
 21
76.4412001731
 31
0.0
  0
LINE
  5
14D
330
1F
100
AcDbEntity
  8
0
  6
Continuous
 62
     7
370
    25
100
AcDbLine
 10
150.3123425481
 20
74.4412001731
 30
0.0
 11
148.5802917405
 21
75.4412001731
 31
0.0
  0
LINE
  5
14E
330
1F
100
AcDbEntity
  8
0
  6
Continuous
 62
     7
370
    25
100
AcDbLine
 10
131.0843933556
 20
75.4412001731
 30
0.0
 11
129.3523425481
 21
74.4412001731
 31
0.0
  0
LINE
  5
14F
330
1F
100
AcDbEntity
  8
0
  6
Continuous
 62
     7
370
    25
100
AcDbLine
 10
129.3523425481
 20
74.4412001731
 30
0.0
 11
131.0843933556
 21
73.4412001731
 31
0.0
  0
LINE
  5
150
330
1F
100
AcDbEntity
  8
0
  6
Continuous
 62
     7
370
    25
100
AcDbLine
 10
148.5802917405
 20
73.4412001731
 30
0.0
 11
150.3123425481
 21
74.4412001731
 31
0.0
  0
LINE
  5
151
330
1F
100
AcDbEntity
  8
0
  6
Continuous
 62
     7
370
    25
100
AcDbLine
 10
150.3123425481
 20
72.4412001731
 30
0.0
 11
148.5802917405
 21
73.4412001731
 31
0.0
  0
LINE
  5
152
330
1F
100
AcDbEntity
  8
0
  6
Continuous
 62
     7
370
    25
100
AcDbLine
 10
131.0843933556
 20
73.4412001731
 30
0.0
 11
129.3523425481
 21
72.4412001731
 31
0.0
  0
LINE
  5
153
330
1F
100
AcDbEntity
  8
0
  6
Continuous
 62
     7
370
    25
100
AcDbLine
 10
129.3523425481
 20
72.4412001731
 30
0.0
 11
129.3523425481
 21
67.4412001731
 31
0.0
  0
LINE
  5
154
330
1F
100
AcDbEntity
  8
0
  6
Continuous
 62
     7
370
    25
100
AcDbLine
 10
150.3123425481
 20
67.4412001731
 30
0.0
 11
150.3123425481
 21
72.4412001731
 31
0.0
  0
LINE
  5
155
330
1F
100
AcDbEntity
  8
0
  6
Continuous
 62
     7
370
    25
100
AcDbLine
 10
129.8323425481
 20
51.4412001731
 30
0.0
 11
129.8323425481
 21
3.4412001731
 31
0.0
  0
LINE
  5
156
330
1F
100
AcDbEntity
  8
0
  6
Continuous
 62
     7
370
    25
100
AcDbLine
 10
149.8323425481
 20
3.4412001731
 30
0.0
 11
149.8323425481
 21
51.4412001731
 31
0.0
  0
LINE
  5
157
330
1F
100
AcDbEntity
  8
0
  6
Continuous
 62
     7
370
    25
100
AcDbLine
 10
139.8323425481
 20
63.4412001731
 30
0.0
 11
139.8323425481
 21
67.4412001731
 31
0.0
  0
LINE
  5
158
330
1F
100
AcDbEntity
  8
0
  6
Continuous
 62
     7
370
    25
100
AcDbLine
 10
139.8323425481
 20
63.4412001731
 30
0.0
 11
126.3323425481
 21
63.4412001731
 31
0.0
  0
LINE
  5
159
330
1F
100
AcDbEntity
  8
0
  6
Continuous
 62
     7
370
    25
100
AcDbLine
 10
126.3323425481
 20
63.4412001731
 30
0.0
 11
126.3323425481
 21
67.4412001731
 31
0.0
  0
LINE
  5
15A
330
1F
100
AcDbEntity
  8
0
  6
Continuous
 62
     7
370
    25
100
AcDbLine
 10
139.8323425481
 20
67.4412001731
 30
0.0
 11
126.3323425481
 21
67.4412001731
 31
0.0
  0
LINE
  5
15B
330
1F
100
AcDbEntity
  8
0
  6
Continuous
 62
     7
370
    25
100
AcDbLine
 10
153.3323425481
 20
63.4412001731
 30
0.0
 11
153.3323425481
 21
67.4412001731
 31
0.0
  0
LINE
  5
15C
330
1F
100
AcDbEntity
  8
0
  6
Continuous
 62
     7
370
    25
100
AcDbLine
 10
153.3323425481
 20
63.4412001731
 30
0.0
 11
139.8323425481
 21
63.4412001731
 31
0.0
  0
LINE
  5
15D
330
1F
100
AcDbEntity
  8
0
  6
Continuous
 62
     7
370
    25
100
AcDbLine
 10
153.3323425481
 20
67.4412001731
 30
0.0
 11
139.8323425481
 21
67.4412001731
 31
0.0
  0
LINE
  5
15E
330
1F
100
AcDbEntity
  8
0
  6
Continuous
 62
     7
370
    25
100
AcDbLine
 10
129.3323425481
 20
51.4412001731
 30
0.0
 11
150.3323425473
 21
51.4412001731
 31
0.0
  0
LINE
  5
15F
330
1F
100
AcDbEntity
  8
0
  6
Continuous
 62
     7
370
    25
100
AcDbLine
 10
129.3523425481
 20
78.4412001731
 30
0.0
 11
150.3123425481
 21
78.4412001731
 31
0.0
  0
LINE
  5
160
330
1F
100
AcDbEntity
  8
0
  6
Continuous
 62
     7
370
    25
100
AcDbLine
 10
131.0843933556
 20
79.4412001731
 30
0.0
 11
148.5802917405
 21
79.4412001731
 31
0.0
  0
LINE
  5
161
330
1F
100
AcDbEntity
  8
0
  6
Continuous
 62
     7
370
    25
100
AcDbLine
 10
131.0843933556
 20
77.4412001731
 30
0.0
 11
148.5802917405
 21
77.4412001731
 31
0.0
  0
LINE
  5
162
330
1F
100
AcDbEntity
  8
0
  6
Continuous
 62
     7
370
    25
100
AcDbLine
 10
129.3523425481
 20
76.4412001731
 30
0.0
 11
150.3123425481
 21
76.4412001731
 31
0.0
  0
LINE
  5
163
330
1F
100
AcDbEntity
  8
0
  6
Continuous
 62
     7
370
    25
100
AcDbLine
 10
131.0843933556
 20
75.4412001731
 30
0.0
 11
148.5802917405
 21
75.4412001731
 31
0.0
  0
LINE
  5
164
330
1F
100
AcDbEntity
  8
0
  6
Continuous
 62
     7
370
    25
100
AcDbLine
 10
129.3523425481
 20
74.4412001731
 30
0.0
 11
150.3123425481
 21
74.4412001731
 31
0.0
  0
LINE
  5
165
330
1F
100
AcDbEntity
  8
0
  6
Continuous
 62
     7
370
    25
100
AcDbLine
 10
131.0843933556
 20
73.4412001731
 30
0.0
 11
148.5802917405
 21
73.4412001731
 31
0.0
  0
LINE
  5
166
330
1F
100
AcDbEntity
  8
0
  6
Continuous
 62
     7
370
    25
100
AcDbLine
 10
129.3523425481
 20
72.4412001731
 30
0.0
 11
150.3123425481
 21
72.4412001731
 31
0.0
  0
LINE
  5
167
330
1F
100
AcDbEntity
  8
0
  6
Continuous
 62
     7
370
    25
100
AcDbLine
 10
129.8323425481
 20
3.4412001731
 30
0.0
 11
149.8323425481
 21
3.4412001731
 31
0.0
  0
LINE
  5
168
330
1F
100
AcDbEntity
  8
0
  6
Continuous
 62
     1
370
    25
100
AcDbLine
 10
128.8323425481
 20
51.9412001731
 30
0.0
 11
150.8323425481
 21
51.9412001731
 31
0.0
  0
ENDSEC
  0
SECTION
  2
OBJECTS
  0
DICTIONARY
  5
C
330
0
100
AcDbDictionary
281
     1
  3
ACAD_GROUP
350
D
  3
ACAD_LAYOUT
350
1A
  3
ACAD_MLINESTYLE
350
17
  3
ACAD_PLOTSETTINGS
350
19
  3
ACAD_PLOTSTYLENAME
350
E
  3
ACAD_SCALELIST
350
47
  3
DWGPROPS
350
169
  0
DICTIONARY
  5
D
102
{ACAD_REACTORS
330
C
102
}
330
C
100
AcDbDictionary
281
     1
  0
DICTIONARY
  5
1A
102
{ACAD_REACTORS
330
C
102
}
330
C
100
AcDbDictionary
281
     1
  3
Layout1
350
1E
  3
Layout2
350
26
  3
Model
350
22
  0
DICTIONARY
  5
17
102
{ACAD_REACTORS
330
C
102
}
330
C
100
AcDbDictionary
281
     1
  3
Standard
350
18
  0
DICTIONARY
  5
19
102
{ACAD_REACTORS
330
C
102
}
330
C
100
AcDbDictionary
281
     1
  0
ACDBDICTIONARYWDFLT
  5
E
102
{ACAD_REACTORS
330
C
102
}
330
C
100
AcDbDictionary
281
     1
  3
Normal
350
F
100
AcDbDictionaryWithDefault
340
F
  0
DICTIONARY
  5
47
102
{ACAD_REACTORS
330
C
102
}
330
C
100
AcDbDictionary
281
     1
  3
A0
350
48
  3
A1
350
49
  3
A2
350
4A
  3
A3
350
4B
  3
A4
350
4C
  3
A5
350
4D
  3
A6
350
4E
  3
A7
350
4F
  3
A8
350
50
  3
A9
350
51
  3
B0
350
52
  3
B1
350
53
  3
B2
350
54
  3
B3
350
55
  3
B4
350
56
  3
B5
350
57
  3
B6
350
58
  3
B7
350
59
  3
B8
350
5A
  3
B9
350
5B
  3
C0
350
5C
  3
C1
350
5D
  3
C2
350
5E
  3
C3
350
5F
  3
C4
350
60
  3
C5
350
61
  3
C6
350
62
  3
C7
350
63
  3
C8
350
64
  3
C9
350
65
  3
D0
350
66
  3
D1
350
67
  3
D2
350
68
  0
XRECORD
  5
169
102
{ACAD_REACTORS
330
C
102
}
330
C
100
AcDbXrecord
280
     1
  1
DWGPROPS COOKIE
  2

  3

  4

  6

  7

  8
b.kav
  9

300
=
301
=
302
=
303
=
304
=
305
=
306
=
307
=
308
=
309
=
 40
0.0
 41
2459948.45436522
 42
2459948.454365417
  1

 90
        0
  0
LAYOUT
  5
1E
102
{ACAD_REACTORS
330
1A
102
}
330
1A
100
AcDbPlotSettings
  1

  2
none_device
  4

  6

 40
0.0
 41
0.0
 42
0.0
 43
0.0
 44
0.0
 45
0.0
 46
0.0
 47
0.0
 48
0.0
 49
0.0
140
0.0
141
0.0
142
1.0
143
1.0
 70
   688
 72
     1
 73
     0
 74
     5
  7

 75
    16
147
1.0
148
0.0
149
0.0
100
AcDbLayout
  1
Layout1
 70
     1
 71
     1
 10
0.0
 20
0.0
 11
420.0
 21
297.0
 12
0.0
 22
0.0
 32
0.0
 14
1.0000000000E+20
 24
1.0000000000E+20
 34
1.0000000000E+20
 15
-1.0000000000E+20
 25
-1.0000000000E+20
 35
-1.0000000000E+20
146
0.0
 13
0.0
 23
0.0
 33
0.0
 16
1.0
 26
0.0
 36
0.0
 17
0.0
 27
1.0
 37
0.0
 76
     0
330
1B
  0
LAYOUT
  5
26
102
{ACAD_REACTORS
330
1A
102
}
330
1A
100
AcDbPlotSettings
  1

  2
none_device
  4

  6

 40
0.0
 41
0.0
 42
0.0
 43
0.0
 44
0.0
 45
0.0
 46
0.0
 47
0.0
 48
0.0
 49
0.0
140
0.0
141
0.0
142
1.0
143
1.0
 70
   688
 72
     1
 73
     0
 74
     5
  7

 75
    16
147
1.0
148
0.0
149
0.0
100
AcDbLayout
  1
Layout2
 70
     1
 71
     2
 10
0.0
 20
0.0
 11
0.0
 21
0.0
 12
0.0
 22
0.0
 32
0.0
 14
0.0
 24
0.0
 34
0.0
 15
0.0
 25
0.0
 35
0.0
146
0.0
 13
0.0
 23
0.0
 33
0.0
 16
1.0
 26
0.0
 36
0.0
 17
0.0
 27
1.0
 37
0.0
 76
     0
330
23
  0
LAYOUT
  5
22
102
{ACAD_REACTORS
330
1A
102
}
330
1A
100
AcDbPlotSettings
  1

  2
none_device
  4
Letter_(8.50_x_11.00_Inches)
  6

 40
6.35
 41
6.35
 42
6.35000508
 43
6.35000508
 44
215.9
 45
279.4
 46
0.0
 47
0.0
 48
0.0
 49
0.0
140
0.0
141
0.0
142
1.0
143
1.0
 70
  1712
 72
     1
 73
     0
 74
     0
  7

 75
     0
147
1.0
148
0.0
149
0.0
100
AcDbLayout
  1
Model
 70
     1
 71
     0
 10
0.0
 20
0.0
 11
279.4
 21
215.9
 12
0.0
 22
0.0
 32
0.0
 14
0.0
 24
0.0
 34
0.0
 15
279.4
 25
215.9
 35
0.0
146
0.0
 13
0.0
 23
0.0
 33
0.0
 16
1.0
 26
0.0
 36
0.0
 17
0.0
 27
1.0
 37
0.0
 76
     0
330
1F
331
29
  0
MLINESTYLE
  5
18
102
{ACAD_REACTORS
330
17
102
}
330
17
100
AcDbMlineStyle
  2
Standard
 70
     0
  3

 62
   256
 51
90.0
 52
90.0
 71
     2
 49
0.5
 62
   256
  6
BYLAYER
 49
-0.5
 62
   256
  6
BYLAYER
  0
ACDBPLACEHOLDER
  5
F
102
{ACAD_REACTORS
330
E
102
}
330
E
  0
SCALE
  5
48
102
{ACAD_REACTORS
330
47
102
}
330
47
100
AcDbScale
 70
     0
300
1:1
140
1.0
141
1.0
290
     1
  0
SCALE
  5
49
102
{ACAD_REACTORS
330
47
102
}
330
47
100
AcDbScale
 70
     0
300
1:2
140
1.0
141
2.0
290
     0
  0
SCALE
  5
4A
102
{ACAD_REACTORS
330
47
102
}
330
47
100
AcDbScale
 70
     0
300
1:4
140
1.0
141
4.0
290
     0
  0
SCALE
  5
4B
102
{ACAD_REACTORS
330
47
102
}
330
47
100
AcDbScale
 70
     0
300
1:5
140
1.0
141
5.0
290
     0
  0
SCALE
  5
4C
102
{ACAD_REACTORS
330
47
102
}
330
47
100
AcDbScale
 70
     0
300
1:8
140
1.0
141
8.0
290
     0
  0
SCALE
  5
4D
102
{ACAD_REACTORS
330
47
102
}
330
47
100
AcDbScale
 70
     0
300
1:10
140
1.0
141
10.0
290
     0
  0
SCALE
  5
4E
102
{ACAD_REACTORS
330
47
102
}
330
47
100
AcDbScale
 70
     0
300
1:16
140
1.0
141
16.0
290
     0
  0
SCALE
  5
4F
102
{ACAD_REACTORS
330
47
102
}
330
47
100
AcDbScale
 70
     0
300
1:20
140
1.0
141
20.0
290
     0
  0
SCALE
  5
50
102
{ACAD_REACTORS
330
47
102
}
330
47
100
AcDbScale
 70
     0
300
1:30
140
1.0
141
30.0
290
     0
  0
SCALE
  5
51
102
{ACAD_REACTORS
330
47
102
}
330
47
100
AcDbScale
 70
     0
300
1:40
140
1.0
141
40.0
290
     0
  0
SCALE
  5
52
102
{ACAD_REACTORS
330
47
102
}
330
47
100
AcDbScale
 70
     0
300
1:50
140
1.0
141
50.0
290
     0
  0
SCALE
  5
53
102
{ACAD_REACTORS
330
47
102
}
330
47
100
AcDbScale
 70
     0
300
1:100
140
1.0
141
100.0
290
     0
  0
SCALE
  5
54
102
{ACAD_REACTORS
330
47
102
}
330
47
100
AcDbScale
 70
     0
300
2:1
140
2.0
141
1.0
290
     0
  0
SCALE
  5
55
102
{ACAD_REACTORS
330
47
102
}
330
47
100
AcDbScale
 70
     0
300
4:1
140
4.0
141
1.0
290
     0
  0
SCALE
  5
56
102
{ACAD_REACTORS
330
47
102
}
330
47
100
AcDbScale
 70
     0
300
8:1
140
8.0
141
1.0
290
     0
  0
SCALE
  5
57
102
{ACAD_REACTORS
330
47
102
}
330
47
100
AcDbScale
 70
     0
300
10:1
140
10.0
141
1.0
290
     0
  0
SCALE
  5
58
102
{ACAD_REACTORS
330
47
102
}
330
47
100
AcDbScale
 70
     0
300
100:1
140
100.0
141
1.0
290
     0
  0
SCALE
  5
59
102
{ACAD_REACTORS
330
47
102
}
330
47
100
AcDbScale
 70
     0
300
1/128" = 1'-0"
140
0.0078125
141
12.0
290
     0
  0
SCALE
  5
5A
102
{ACAD_REACTORS
330
47
102
}
330
47
100
AcDbScale
 70
     0
300
1/64" = 1'-0"
140
0.015625
141
12.0
290
     0
  0
SCALE
  5
5B
102
{ACAD_REACTORS
330
47
102
}
330
47
100
AcDbScale
 70
     0
300
1/32" = 1'-0"
140
0.03125
141
12.0
290
     0
  0
SCALE
  5
5C
102
{ACAD_REACTORS
330
47
102
}
330
47
100
AcDbScale
 70
     0
300
1/16" = 1'-0"
140
0.0625
141
12.0
290
     0
  0
SCALE
  5
5D
102
{ACAD_REACTORS
330
47
102
}
330
47
100
AcDbScale
 70
     0
300
3/32" = 1'-0"
140
0.09375
141
12.0
290
     0
  0
SCALE
  5
5E
102
{ACAD_REACTORS
330
47
102
}
330
47
100
AcDbScale
 70
     0
300
1/8" = 1'-0"
140
0.125
141
12.0
290
     0
  0
SCALE
  5
5F
102
{ACAD_REACTORS
330
47
102
}
330
47
100
AcDbScale
 70
     0
300
3/16" = 1'-0"
140
0.1875
141
12.0
290
     0
  0
SCALE
  5
60
102
{ACAD_REACTORS
330
47
102
}
330
47
100
AcDbScale
 70
     0
300
1/4" = 1'-0"
140
0.25
141
12.0
290
     0
  0
SCALE
  5
61
102
{ACAD_REACTORS
330
47
102
}
330
47
100
AcDbScale
 70
     0
300
3/8" = 1'-0"
140
0.375
141
12.0
290
     0
  0
SCALE
  5
62
102
{ACAD_REACTORS
330
47
102
}
330
47
100
AcDbScale
 70
     0
300
1/2" = 1'-0"
140
0.5
141
12.0
290
     0
  0
SCALE
  5
63
102
{ACAD_REACTORS
330
47
102
}
330
47
100
AcDbScale
 70
     0
300
3/4" = 1'-0"
140
0.75
141
12.0
290
     0
  0
SCALE
  5
64
102
{ACAD_REACTORS
330
47
102
}
330
47
100
AcDbScale
 70
     0
300
1" = 1'-0"
140
1.0
141
12.0
290
     0
  0
SCALE
  5
65
102
{ACAD_REACTORS
330
47
102
}
330
47
100
AcDbScale
 70
     0
300
1-1/2" = 1'-0"
140
1.5
141
12.0
290
     0
  0
SCALE
  5
66
102
{ACAD_REACTORS
330
47
102
}
330
47
100
AcDbScale
 70
     0
300
3" = 1'-0"
140
3.0
141
12.0
290
     0
  0
SCALE
  5
67
102
{ACAD_REACTORS
330
47
102
}
330
47
100
AcDbScale
 70
     0
300
6" = 1'-0"
140
6.0
141
12.0
290
     0
  0
SCALE
  5
68
102
{ACAD_REACTORS
330
47
102
}
330
47
100
AcDbScale
 70
     0
300
1'-0" = 1'-0"
140
12.0
141
12.0
290
     0
  0
ENDSEC
  0
EOF
